Chala Jata Hoon Guitar Tabs For Beginners | Kishore Kumar

 CLICK HERE TO GET BEST DEALS ON AMAZON. 

Chala Jata Hoon Guitar tabs Is Now Available On NotationsWorld. Hope This Tabs Is Useful For You. For More Guitar Tabs Keep Follow NotationsWorld.

Chala jaata hoon

G| --1-1--1------------

B| ------------0---0---

Kisi ki dhun mein

D| ---------2------------

G| --1-1--------2---2---

Dhadakte dil ke

G| --1-1--1------------

B| ------------0---0---

Taraane liye

D| -------2--4--1--2---

G| --1-------------------

Chala jaata hoon

G| --1-1--1------------

B| ------------0---0---

Kisi ki dhun mein

D| ---------2------------

G| --1-1--------2---2---

Dhadakte dil ke

G| --1-1--1------------

B| ------------0---0---

Taraane liye

D| -------2--4--1--2---

G| --1-------------------

Milan ki masti

B| --5-5--4--2---2---

bhari aankhon mein

B| --4-4--2--0---0---

Hazaron sapne

B| --5-5--4--2---2---

suhaane liye

B| --4-4--4--2-0---

Hoo oo

G| -------2-1---

B| --0----------

Chala jaata hoon

G| --1-1--1------------

B| ------------0---0---

Kisi ki dhun mein

D| ---------2------------

G| --1-1--------2---2---

Dhadakte dil ke

G| --1-1--1------------

B| ------------0---0---

Taraane liye

D| -------2--4--1--2---

G| --1-------------------

Yeh maste kee najaaree hain

Toh ayesee main sanbhalana

Kaisa mere kasamm

Joo laharaate dagareeya hoo

Toh fir kyoo na

Chalo mein bahaka

Bahaka ree

Meree jewan main

Yeh shaam aaye hain

Mohabbaat waalee jamaanee liyee

Woh aalaam bhee ajabb hoga

Woh jab meree kareeb

Aayege mere kasam

Kabhe baiya chudaa lege

Kabhe has kee galee see

Lagg jaayege hay

Mere baahon main machal jaayege

Woh sachchee zoothe bahaanee liyee

Bahaaroo mee najaaroo main

Nazar daalo toh ayesa

Laagee mere kasamm

Woh nainoo main bharee kajal

Ghoonghat khoole khade

Hain meree aage ree

Sharamm see bozal

Juke palakoon main

Jawan raaton kee

Fasaanee liyee

Leave a Comment