Naino Ne Baandhi Guitar Tabs For Beginners | Gold | VERY EASY

 CLICK HERE TO GET BEST DEALS ON AMAZON. 

Naino Ne Baandhi Guitar Tabs Is Now Available On NotationsWorld. Hope This Tabs Is Useful For You. For More Guitar Tabs Keep Follow NotationsWorld.

Dil see sun piyaa yeeh 

G| --3-----------------------5-3--

B| ------6--6--4-3---6-3---------

Dil kii daastaan

G| --3-----------------

B| -------6--6--4-3---

Joo lafzoon main nahin hoo bayaan

G| --3--3----------------8--7---7---------------

B| -----------6--6--8---------------6-4-3-1--

Dil see sun piyaa yeeh 

G| --3-----------------------5-3--

B| ------6--6--4-3---6-3---------

Dil kii daastaan

G| --3-----------------

B| -------6--6--4-3---

Joo lafzoon main nahin hoo bayaan

G| --3--3----------------8--7---7---------------

B| -----------6--6--8---------------6-4-3-1--

Abb jaisaa bhii rastaa

G| --5-7-5--3--0--0--5--3--

Tooteegaa naa vaastaa

G| --5--3-2-2--3--5--7-8-7--

Naa raheegaa faaslaa 

G| --5-7-5--3--0--0--5--3--

Darmiyaan

G| --3--2-2-5---7-5-7--

Nainoo nee baandhii kaisii door ree

G| --7--7--7--5--7---3--2--2--3-3-7-5--

Nainoo nee baandhii kaisii door ree

G| --7--7--7--5--7---3--2--2--3-3-7-5--

Hoo munsif hei meraa

B| --5---5--5--5--8--5--3-1--

Meraa choor ree

G| --------------3-3--

B| --1--1--3----------

Dil pee chalee naa kooyi zoor ree

G| --7--7--7--5--7---3--2--2--3-3-7-5--

Haan dil pee chalee naa kooyi zoor ree

G| --7---7--7--7--5--7---3--2--2--3-3-7-5--

Hooo...

B| --5--3--1--3--5---

Khichaa chalaa jaayee

B| --5--5--5--8--5--3-1--

Teeri oore ree

G| -------------3-3--

B| --1--1--3----------

Hoo ajaa teraa darass dikhaa dee maahi

Mujhee meraa akss dikhaa dee maahi

Tujhsee judi hai sabb kahaniyaan 

Hoo ajaa teraa darass dikhaa dee maahi

Mujhee meraa akss dikhaa dee maahi

Tujhsee judi hai sabb kahaniyaan

Chahee 100 gardisheein hoo

Parr kooyi bair nahin

Hum duniyaa see lad lengee

Par teree baghairr nahin

Dil see sunn piyaa yeeh dil kii daastaan

Joo lafzoon main nahin hoo bayaan

Humsafarr humraz tuu

Jismm mein aurr saans tuu

Rehnaa meere paas tuu yoon sadaa

Nainao nee baandhii kaisii dorr ree

Haan nainoo nee baandhii kaisii door ree

Hoo munsif hii meera meera chorr ree

Dil pee chalee naa kooyi zoor ree

Haan dil pee chalee naa kooyi zoor ree

Hoo khichaa chalaa jaayee teri oore ree

Leave a Comment