Le Chala Guitar Tabs For Beginners | One Night Stand

 CLICK HERE TO GET BEST DEALS ON AMAZON. 

Le Chala Guitar Tabs Is Now Available On NotationsWorld. Hope This Tabs Is Useful For You. For More Guitar Tabs Keep Follow NotationsWorld.

Chuu gayee ungliyaan

G| --3---2--3---3--3--3--2---

Jaanee kis khwab see

D| -----------------------3--3---

G| --0--2--0--0---0------------

Aaj kyoon neend see

G| --3---2--3----------3--2---

B| ---------------3-------------

Uth gayee khwahisheein 

D| ------------------------3--3---

G| --0--2--0--0---0-------------

Yeeh khalish hain nayii

D| --3---------3-----------------------------

G| -------0----------0--0---0--2--0--2---

Yeeh junon hain nayaa

D| --3---------------------------------

G| ------------------------------------

B| ----------6--6---4--6--4--3--1---

Lee chalaa

D| --3--5----------------------------

G| -----------8--7---5--7---5--7---

dil kahan

D| -------3--5---3--5---3--5---

G| --3----------------------------

dil kahan

D| --3--5----------------------------

G| -----------7--5---3--5---3--5---

Lee chalaa

G| --2--0--2--3---

Lee chalaa

D| --3--5----------------------------

G| -----------8--7---5--7---5--7---

dil kahan

D| -------3--5---3--5---3--5---

G| --3----------------------------

dil kahan

D| --3--5----------------------------

G| -----------7--5---3--5---3--5---

Lee chalaa

G| --2--0--2--3---

Bass abhi tooh milee

Aurr chalee doo kadaam

Kaisee phirr aa gayee haan

Iss qadarr paas humm

Bass abhi tooh milee

Aurr chalee doo kadaam

Kaisee phirr aa gayee haan

Iss qadarr paas humm

Sach hain yeh yaa wahamn

Kyaa khabarr kyaa pataa

Lee chalaa dil kahan

Dil kahan lee chalaa

Lee chalaa dil kahan

Dil kahan lee chalaa

Lee chalaa dil kahan

Dil kahan lee chalaa

Yon leher kii taraah

Zindagii beeh gayii

Khoo gayaa mein kaheen

Sirf tuu reh gayii

Yon leher kii taraah

Zindagii beeh gayii

Khoo gayaa mein kaheen

Sirf tuu reh gayii

Kyaa yahii hain safarr

Jism see rooh kaa

Lee chalaa dil kahan

Dil kahan lee chalaa

Lee chalaa dil kahan

Dil kahan lee chalaa

Leave a Comment