Phir Suna Guitar Tabs For Beginners | Emptiness | VERY EASY

 CLICK HERE TO GET BEST DEALS ON AMAZON. 

Phir Suna Guitar Tabs Is Now Available On NotationsWorld. Hope This Tabs Is Useful For You. For More Guitar Tabs Keep Follow NotationsWorld.

Phirr sunaa

B| ---------4--------

E| --0----------0---

Meethi meethi sii wooh dastaan

B| ------------------2--4---------4-------

E| --0--4--2--0------------0---------0--

Jiskoo sun kee meeri zindaagi

B| ------------------2--4----------4---------4--2--

E| --0--4--2--0-------------0---------0-----------

Mein hooti hain wohii subaah

B| --2--4--5--4--2--0--0---2--0---

Paas aaa

B| ---------4--------

E| --0----------0---

Aakee mujhsee phir naa door ja

B| ------------------2--4---------4-------

E| --0--4--2--0------------0---------0--

Pyaarii pyaarii is raatt ki

B| ------------------2--4----------4---------4--2--

E| --0--4--2--0-------------0---------0-----------

Gehrayyioon mee doob jaa

B| --2--4--5--4--2--0--0---2--0---

Wo o o..

B| -------------------------------4---------

E| --0--7--5--4--2--0--0------------0---

Wo o o..

B| -------------------------------4---------

E| --0--7--5--4--2--0--0------------0---

Wo o o..

B| -------------------------------4--------------------

E| --0--7--5--4--2--0--0------------0---2--4--2--

Wo o o..

B| -------------------------------4---------

E| --0--7--5--4--2--0--0------------0---

Wo o o..

B| -------------------------------4---------

E| --0--7--5--4--2--0--0------------0---

Wo o o..

B| -------------------------------4--------------------

E| --0--7--5--4--2--0--0------------0---2--4--2--

Aaa baahoon main bhar loon tujhkoo kaskarr

Saaree gum bhulaa dee dekhee jab tuu haskar

Aaa baahoon main bhar loon tujhkoo kaskarr

Saaree gum bhulaa dee dekhee jab tuu haskar

Yee raat dhal na jaayee

Sameet loon main harr pal

Aaa milkee sajaayeein joo aanee waala hain kal

Hm.. mmm….

Pass aa aakee mujhsee phir naa door ja

Pyaari pyaari is raat kii geharaiyoon main doob jaa

Wooo.. wooo.. wooo.. oo..

Meraa dil meeri jaan tuu

Meree saaree armaan tuu

Teree liyee tooh mein chhod duun

Yeeh Jahaan

Leave a Comment