Ram Aayenge Guitar Tabs For Beginners | VERY EASY

Ram Aayenge Guitar Tabs For Beginners | VERY EASY

Ram Aayenge Guitar Tabs Is Now Available On NotationsWorld. Hope This Tabs Is Useful For You. For More Guitar Tabs Keep Follow NotationsWorld.

Meri jhopadi ke bhag aaj

B| --2--2--2---4--4--6--6--4--4--2--

Jaag jaayenge ram aayenge

B| --2--4--4--6--6---4--2--4--2--2---

Meri jhopadi ke bhag aaj

B| --2--2--2---4--4--6--6--4--4--2--

Jaag jaayenge ram aayenge

B| --2--4--4--6--6---4--2--4--2--2---

Ram aayenge aayenge ram aayenge

B| ------------------7--6--4--7--6--4--2--2--

E| --4---4--6--4-------------------------------

Ram aayenge aayenge ram aayenge

B| ------------------7--6--4--7--6--4--2--2--

E| --4---4--6--4-------------------------------

Meri jhopadi ke bhag aaj

B| --2--2--2---4--4--6--6--4--4--2--

Jaag jaayenge ram aayenge

B| --2--4--4--6--6---4--2--4--2--2---

PLEASE TRY TO AVOID AUTO TRANSLATION OF PAGES, IT MAY DISRUPT THE ALIGNMENT

Leave a Comment