Kaise Bataaoon Guitar Tabs For Beginners | 3G | VERY EASY

 CLICK HERE TO GET BEST DEALS ON AMAZON. 

Kaise Bataaoon Guitar Tabs Is Now Available On NotationsWorld. Hope This Tabs Is Useful For You. For More Guitar Tabs Keep Follow NotationsWorld.

Kaisee bataun tujhee kee

G| --4----------------4--3--1---4--

B| -------2--4--2-------------------

Dil meraa kyaa ke rahaa

G| --4---------------3--4--4---

B| ------2--4--2----------------

Rahee naa faaslee yee joh

G| --4----------------4--3--1---4--

B| -------2--4--2-------------------

Hain apnee darmiyan

G| --4---------------3--4--4---

B| ------2--4--2----------------

Hoo..

Kaisee bataun tujhee kee

G| --4----------------4--3--1---4--

B| -------2--4--2-------------------

Dil meraa kyaa keh rahaa

G| --4---------------3--4--4---

B| ------2--4--2----------------

Rahee naa faaslee yee joo

G| --4----------------4--3--1---4--

B| -------2--4--2-------------------

Hain apnee darmiyan

G| --4---------------3--4--4---

B| ------2--4--2----------------

Teree qareb mein hoo sakon

B| -------------------4--2--0--2--4--2--

E| --0--0--0--2-----------------------

Dee dee tuu apnii raza

E| --0--0--0--0--2--4---2--2---

Paass bithaun

B| ---------------4--0---

E| --4---2--0------------

Yee zulff sanwaaroon

B| --0----------------4--0---

E| -------4---2--0-----------

Aurr baahoon main lee loon tujhee

B| --0-----------------4--2--4-----------

E| -------4---2--0---------------2--2---

Main..

B| --5--4--2--4-2-0--

Hain dil kii yee khwahish

B| --0--------------4--0--

E| ------4--2--0-----------

Ki sunn lee guzarish

B| --0--------------4--0--

E| ------4--2--0-----------

Aurr dee dee tu khud koo mujhee

B| --0-----------------4--2--4-----------

E| -------4---2--0----------------2--2--

Ho oo ooo...

G| --4----------------4--3--1---4--

B| -------2--4--2-------------------

Ho oo ooo...

G| --4---------------3--4--4---

B| ------2--4--2----------------

Ho oo ooo...

G| --4----------------4--3--1---4--

B| -------2--4--2-------------------

Ho oo ooo...

G| --4---------------3--4--4---

B| ------2--4--2----------------

Tujh see mohaabbat huii

Hain meri hain bass yee khataa

Tujh see mein door rahon

Yeeh mujh koo gawaaraa kahan

Mein teree saath main hii rahon

Chodoo yee saaraa jahaan

Paass bithaun yee zulff sanwaron

Aurr bahoon main lee loon tujhee mein

Hain dil kii yee khwahish

Kii sunn lee guzarish

Aurr dee dee tuu khud koo mujhee 

Wooh hoo hoo..

Hoo hoo..

Hoo hoo woo hoo.. hoo hoo woo..

Teeri adaoon main doobb loun

Doub loun mein tujhii main

Hoo jaun teere itnee qareeb

Kii mein dikhon abb tujhii main

Paass bithaun yee zulff sanwaron

Aurr bahoon main lee loon tujhee mein

Hain dil kii yee khwahish

Kii sunn lee guzarish

Aurr dee dee tuu khud koo mujhee 

Wooh hoo hoo..

Leave a Comment