Chak De India Guitar Tabs For Beginners | Title Song | VERY EASY

 CLICK HERE TO GET BEST DEALS ON AMAZON. 

Chak De India Guitar Tabs Is Now Available On NotationsWorld. Hope This Tabs Is Useful For You. For More Guitar Tabs Keep Follow NotationsWorld.

Kucch kariyee

G| --5-4-2--4--

Kucch kariyee

G| --5-4-2--4--

Nass nass meeri khoole

G| --4--4--4-4---------

B| ---------------5--3--

Hayee kuch kariyee

G| --------5-4-2--4---

B| --5-3---------------

Kucch kariyee

G| --5-4-2--4--

Kucch kariyee

G| --5-4-2--4--

Bass bass badaa boole

G| --4--4--4-4---------

B| ---------------5--3--

Ab kucch kariyee

G| --------5-4-2--4---

B| --5-3---------------

Hoo koi tooh chal zid phadiyee

G| --5---5-5-4-2-0--4-2-2--

Tuu bidarayiyee yaa mariyee

G| --5--5--4-2-0--4-2-2--2--

Haye koii toh chall zid phadiyee

G| --5---5-5-4-2-0--4-2-2--

Tuu bidarayiyee yaa mariyee he he he

G| --5--5--4-2-0--4-2-2--2---4--5--7--

Chakk dee hoo chakk dee indiaa

G| --4--4----------------------------

B| ----------5---8-8-8-7--3--3-5--

Chakk dee hoo chakk dee indiaa

G| --2--2----------------------------

B| ---------3---8-8-8-7--3--3-5---

Chakk dee hoo chakk dee indiaa

G| --4--4----------------------------

B| ----------5---8-8-8-7--3--3-5--

Chakk dee hoo chakk dee indiaa

G| --2--2----------------------------

B| ---------3---8-8-8-7--3--3-5---

Poochoo naa galioon main raashan kii phalioon main

Bailoon main beejoo main eedon main dijoon main

Reetoon kee daanoo main filmoon kee gaanoo main

Sadkoo kee gaddoon main baatoon kee addoo main

Humkaraa aaj bharr lee dass baaraa baar karr lee

Rehnaa naa yaar pichhee kitnaa bhi koii khinchee

Tass hain naa mass hain ji jid hain tooh jid hain jii

Pisnaa yunhi pisnaa yunhi paththarr yeeh

Koi tooh chal zid phadiyee tuu bedarayiyee yaa maariye.. 

                             (x2)

Chakk dee hoo chakk dee indiaa

Chakk dee hoo chakk dee indiaa

Chakk dee hoo chakk dee indiaa

Chakk dee hoo chakk dee indiaa

Ladaati patangoon main bhidatii umangoon main

Kheelo kee meeloon main balkhaatii reloon main

Gannoo kee mithee main khattar main jhiteein main

Dhundeein tooh mil jaavee woo main

Dung hain nikhaarein aurr khul kee aagg bikharein

Man jaayee aaisi hooli rugg rugg main chal kee booli

Tass hain naa mas hain jii zid hain tooh zid hain ji

Pisnaa yunhi pisnaa yunhi paththarr yeeh

Koii tooh chal zid phadiyee tuu bedaarayiyee yaa mariyee.. 

                                     (x2)

Chakk dee hoo chakk dee indiaa

Chakk dee hoo chakk dee indiaa

Chakk dee hoo chakk dee indiaa

Chakk dee hoo chakk dee indiaa

Kii abh kuch kariyee.....

Leave a Comment