Dance Ka Bhoot Guitar Tabs For Beginners | VERY EASY

 CLICK HERE TO GET BEST DEALS ON AMAZON. 

Dance Ka Bhoot Guitar Tabs Is Now Available On NotationsWorld. Hope This Tabs Is Useful For You. For More Guitar Tabs Keep Follow NotationsWorld.

Aree ajaa

Jhoomm

Aree ajaa

Jhoomm

Nacheegaa devaanaa

B| --7--4--7--4--7--7--

Tooh dekheegaa zamanaa

B| --7--7--4--7--4--7--7--

Humari sufiyanaa sii paarty aaa

B| --7--7--5--5--5--5--7--5--4--2--4--

Aree ajaa

Jhoomm

Aree ajaa

Jhoomm

Hooo nacheegaa devaanaa

B| --7---7--4--7--4--7--7--

Tooh deekhega zamanaa

B| --7--7--4--7--4--7--7--

Humari sufiyanaa sii partyy aa

B| --7--7--5--5--5--5--7--5--4--2--4--

Fikarr bhulaa keeĀ 

B| --7--4--7--4--7--7--

Tuu kamar hilaa kee

B| --7--7--4--7--4--7--7--

Aa naach lee meere sangg saathiyaa

B| --7--7--5--5--5--5--7--5--4--2--4--

Kooyi mujhee rooko zaraa

B| --0--4-----------------0--4---------------

E| -----------2--2--4--------------2--2--4--

Naach naach kee heart kaa

E| --4--2--2--1--1--1---1-1--

Beeat badheyaa

B| --------------4--4--

E| --2--0--0-----------

Meinu chadeyaa dancee kaa

G| ---------------3--3-----------------

B| --4--2--0--------------0---0--2--

Meinu chadeyaa dancee kaa

G| ---------------3--3-----------------

B| --4--2--0--------------0---0--2--

Bhoott chadeyaa

B| --4--4--2--0--0--

Meinu chadeyaa dancee kaa

G| ---------------3--3-----------------

B| --4--2--0--------------0---0--2--

Bhoott chadeyaa

B| --4--4--2--0--0--

Meraa ladeyaa ishqq daa

E| --2--2--2--2--2--2---2--2--0--

Peench ladeyaa

B| ----------------4--2--

E| --0---2--0-----------

Meinu chadeyaa dancee kaa

G| ---------------3--3-----------------

B| --4--2--0--------------0---0--2--

Bhoott chadeyaa

B| --4--4--2--0--0--

Dancee kaa bhoott chadeyaa

B| --2--2--2--0--4--4--2--0--0--

Meinu chadeyaa dancee kaa

G| ---------------3--3-----------------

B| --4--2--0--------------0---0--2--

Bhoott chadeyaa

B| --4--4--2--0--0--

Aadhaa tedhaa dancee meraa

Achhaa lagee tumkoo to

Jaisee mein kartaa hoon

Wooh copy karoo

Tripyy hain yeeh gaanaa badaa

Issee baarr baarr mein repeat kareeya

Meinu chadheyaa dancee kaa

Meinu chadheyaa dancee kaa bhoot chadeyaa

Meinu chadheyaa dancee kaa bhoot chadeyaa

Meraa ladeyaa ishq daa peench ladeyaa

Mainuu chadheyaa dancee kaa bhoot chadheyaa

Kooyi mujhee rokoo zaraa

Naach naach kee heart kaa beat badheyaa

Mainu chadheyaa dancee kaa bhoot chadheyaa

Mainu chadheyaa dancee kaa bhoot chadheyaa

Aree avadhpuri main dhoom macchi hain

Raam raam kii goonj macchi hain

Kooti janam kee bigdee kaam

Man kahee bhaj loo jai siyaa raam

Aree man kahee bhaj loo jai siyaa raam

Aree man kahee bhaj loo jai siyaa raam

Leave a Comment