Tumhe Apna Banane Ka Guitar Tabs For Beginners | VERY EASY

 CLICK HERE TO GET BEST DEALS ON AMAZON. 

Tumhe Apna Banane Ka Guitar Tabs Is Now Available On NotationsWorld. Hope This Tabs Is Useful For You. For More Guitar Tabs Keep Follow NotationsWorld.

Tumhee apnaa banaa

B| --5--5---5--8--5--8--5--1---

nee kaa junon

G| --4--2--4--2---0--2---

Sarr pee hain kab see hain

G| --0---4--4---0---2--2---

Mujhee aadat banaa

B| --5--5---5--8--5--8--5--1---

loo ik burii

G| --4--2--4--2---0--2---

Kehnaa yee tumsee hain

G| --0---4--4---0---2--2---

Tumhee apnaa banaa

B| --5--5---5--8--5--8--5--1---

nee kaa junon

G| --4--2--4--2---0--2---

Sarr pee hain kab see hain

G| --0---4--4---0---2--2---

Sarr pee hain kab see hain

G| --0---4--4---5-4-2-0-0--2--2---

Jism kee samandarr main

D| ---------------------2--------

G| --2--4--5--4--0---------2--

Ikk lehar joo thehaari hain

G| --2--4--5--4--2-----------

B| ---------------------5--3--

Usmee thoodi harqat hoone doo

D| -------------------------2-----------

G| --2--4--5--4--2--0---------0--0--

Shayarii sunati in 

D| ---------------------2--------

G| --2--4--5--4--0---------2--

Doo nasheli aankhoon koo

G| --2--4--5--4--2-----------

B| ---------------------5--3--

Mujhkoo paas aakee padhnee doo

D| -------------------------2-----------

G| --2--4--5--4--2--0---------0--0--

Ishqq ki khwaahishoon main

D| --2--------------------------

G| -------0--5---7--5--4--4--

Bheeg loo baarishoon main

D| --2-----------------------------

G| -------0--5---7--9--7--4--4--

Aaoo naa..

G| --0--2--0--2---

Tumhee paakar naa khoo

B| --5--5---5--8--5--8--5--1---

nee kaa junoon

G| --4--2--4--2---0--2---

Sarr pee hain kab see hain

G| --0---4--4---0---2--2---

Mujhee nazroon main rakh 

B| --5--5---5--8--5--8--5--1---

loo tum kaheen

G| --4--2--4--2---0--2---

Kehnaa yee tumsee hain

G| --0---4--4---0---2--2---

Tumhee apnaa banaanee kaa junoon

Sarr pee hain kab see hain

Sarr pee hain kab see hain

Hm... roknaa nahin mujhkoo

Zid pee aa gayi hon mein

Is qadar diwaanapan chadhaa

Dekhoo naa yahan aakee

Meraa haal kaisaa hain

Toot kee abhi takk naa judaa

Abb sambhalnaa nahin hain

Joo bhi hain woo sahi hain

Aaoo naa..

Tumhee khud see milaanee kaa junoon

Sarr pee hain kab see hain

Mujhee rehnee doo apnee paas hii

Kehnaa yee tumsee hain

Tumhee apnaa banaane kaa junon

Sarr pee hain kab see hain

Sarr pee hain kab see hain

Leave a Comment