Vida Karo Guitar Tabs For Beginners | Arijit Singh | VERY EASY

Vida Karo Guitar Tabs For Beginners | Arijit Singh | VERY EASY

Vida Karo Guitar Tabs Is Now Available On NotationsWorld. Hope This Tabs Is Useful For You. For More Guitar Tabs Keep Follow NotationsWorld.

Mainu vida karo

B| --3--4--6--6---4--6--

Mainu vida karo ji

B| --3--4-----------------------

E| -----------3--3---1--5--3---

Ab vida karo mere yaara

E| --1--1--5--5---5--5--6--8--6--6---5--3--1--

Mainu vida karo

B| --3--4--6--6---4--6--

Mainu vida karo ji

B| --3--4-----------------------

E| -----------3--3---1--5--3---

Maine jaana hai us paar

E| --1--1--5---5---5--6--8--6--6---

Tum sabhi saaf sahi

E| --5--8--8--8-11-10-13---13--8--5--8--6--

Hoon matmela main

E| --1--5--5--5--1--5--8-10-6---

Tum sabhi paak magar 

E| --5--8--8--8-11-10-13---13--8--5--8--6--

Paap ka dariya main

E| --5--5--5--5--1--5--8-10-6---5--3--1--

Mainu vida karo

B| --3--4--6--6---4--6--

Mainu vida karo ji

B| --3--4-----------------------

E| -----------3--3---1--5--3---

Ab vida karo mere yaara

E| --1--1--5--5---5--5--6--8--6--6---

PLEASE TRY TO AVOID AUTO TRANSLATION OF PAGES, IT MAY DISRUPT THE ALIGNMENT

Leave a Comment