Sapna Jahan Guitar Tabs For Beginners | Brothers | VERY EASY

 CLICK HERE TO GET BEST DEALS ON AMAZON. 

Sapna Jahan Guitar Tabs Is Now Available On NotationsWorld. Hope This Tabs Is Useful For You. For More Guitar Tabs Keep Follow NotationsWorld.

Sapna jahan dastak na de

B| --4--6--4--8---4--6--4--3---

Chaukhat thi woh aankhein meri

B| --3--4--6--6---1--3--4--4---

Baaton se thi tadaad mein

B| --4--6--4--8---4--6--4--3---

Khamoshiyan zyaada meri

B| --3--4--6--6---1--1--3--6--4--

Jabse pade tere kadam

B| -------8--6--8-------------------

E| --6----------------6--8--6--5---

Chalne lagiĀ 

E| --1--5--8--5--8---10--

Duniya meri

E| --10-10-8--11--10---

Mere dil mein jagah khuda ki khaali thi

E| --3--6---8--11--8--11--8--11--8---11--8--6--8--10--11---

Dekha wahan pe aaj tera chehra hai

E| --11--13--15--13---11--8---6--8---11--8---6---8---

Main bhatakta hua sa ek baadal hoon

E| --3--6---8--11--8--11--8--11--8---11--8--6--8--10--11---

Jo tere aasmaan pe aake thehra hai

E| --11--13--15--13---11--8---6--8---11--8---6---8---

Tuu rooh hain tooh mein kaaya banuu

Taaumr mein teraa saayaa banuu

Keh dee tooh ban jaaun bairaagg mein

Kehdee tooh mein teeri maayaa banuu

Tuu saaz hain mein raagini

Tuu raat hain mein chaandni

Meere dil main jagaah khudaa kii khaali thii

Dekhaa wahaan pee aaj teraa chehraa hain

Mein bhataktaa hua saa ekk baadal houn

Joo teere asmaan pee aakee thehraa hain

Hum pee sitaaroon kaa ehsaan hoo

Pooraa adhooraa harr armaan hoo

Ekk duusre see joo baandhee hume

Baahoon main nanhii sii ik jaan hoo

Aabaad hoo chotaa saa ghar

Lag naa sakee kisi ki nazarr

Meree dil main jagaah khudaa ki khaali thii

Dekhaa wahaan pee aaj teraa chehraa hain

Main bhataktaa hua saa ekk baadal hoon

Joh teere asmaan pee aakee thehraa hain

Leave a Comment