Alvida Guitar Tabs For Beginners | Life in a Metro | VERY EASY

 CLICK HERE TO GET BEST DEALS ON AMAZON. 

Alvida Guitar Tabs Is Now Available On NotationsWorld. Hope This Tabs Is Useful For You. For More Guitar Tabs Keep Follow NotationsWorld.

Chupkee see kahin dheemee paoon see

D| --4------------4-----------------------------4--

G| -------2--2----------2---4--4--4--7--6--------

Jaanee kis taraah kis ghadii

D| --4--------------------------------

G| ------2--7--6--2---2--4--4--2---

Aagee badh gayee humsee raahoon main

D| --4------------4-----------------------------4--

G| -------2--2----------2---4--4--4--7--6--------

Par tum too abhii the yaheen

D| --4--------------------------------

G| ------2--7--6--2---2--4--4--2---

Kuch bhii naa sunaa

G| --0--0--0--2--0--0---

Kab kaa thaa gilaa

G| --0--0--0--2--0--0---

Kaisee keh diyaa alvidaa

D| -----------------------4--------------

G| --2--2---4--6--2----------0--0-2--

Jinkee darmiyaan guzri thi abhii

D| --4------------4-----------------------------4--

G| -------2--2----------2---4--4--4--7--6--------

Kal takk yeeh meeri zindaagi

D| --4--------------------------------

G| ------2--7--6--2---2--4--4--2---

Loo unn baahoon koo

G| --0--0--0--2--0--0---

Thandhii chhaoon koo

G| --0--0--0--2--0--0---

Hum bhii kar chalee alvidaa

D| -----------------------4--------------

G| --2--2---4--6--2----------0--0-2--

Alvidaa alvidaa

B| --7--5--3---3--5--5-7---

Merii raaheein alvidaa

B| --5--3--5--5---5--7--5---

Merii sanseein kehtii hain 

B| --3-2-3--3---0--2--3---

Alvidaa

B| --3--5--3--0---

Alvidaa alvidaa

B| --7--5--3---3--5--5-7--5-7---

Abb kehnaa aur kyaa

B| --5--3--5--5---5--7--5---

Jabb tunee keh diyaa

B| --3-2-3--3---0--2--3---

Alvidaa

B| --3--5--3--0---

Sun lee bekhabarr

Kyoon aankein pherr karr

Aaj tuu chalee ja

Dhoondegii nazarr

Humkoo hii magar harr jagaah

Aisii raatoon main

Leekar karwaatein

Yaad humeein karnaa

Aurr phir haar karr

Kehnaa kyun magarr keh diyaa

Alvidaa alvidaa

Koyii poochhee toh zaraa

Kyaa sochaa aur kahaa alvidaa

Alvidaa alvidaa

Abb kehnaa aurr kyaa

Jab tunee keh diyaa alvidaa

Hum thee diljalee

Phirr bhi dil kahee

Kash meree sangg

Aaj hotee tum agarr

Hotii har dagarr gulsitaan

Tumsee hain khafaa

Hum narazz hainn

Dil hainn pareeshan

Sochaa naa sunaa

Tunee kyon bhalaa

Kehh diyaa

Alvidaa alvidaa

Koyi poochhee toh zaraa

Kyaa sochaa aur kahaa alvidaa

Alvidaa alvidaa

Abb kehnaa aur kyaa

Jabb tunee keh diyaa alvidaa

Alvidaa alvidaa alvidaa

Kyun sochaa aurr kahaa alvidaa

Lohh un baahoon koo

Thandhii chhaoon koo

Hum bhii kar chalee alvidaa

Leave a Comment