Hey Ram Hey Ram Guitar Tabs For Beginners | VERY EASY

 CLICK HERE TO GET BEST DEALS ON AMAZON. 

Hey Ram Hey Ram Guitar Tabs Is Now Available On NotationsWorld. Hope This Tabs Is Useful For You. For More Guitar Tabs Keep Follow NotationsWorld.

Hey raam hey raam

B| --1------------------------

E| -------1---3---5--3--1---

Hey raam hey raam

B| --1------------------------

E| -------1---3---5--3--1---

Tu hii mataa tuu hii pita hain

B| ---------------------------------3--1--

E| --5---5--5--3--5---1---3--1----------

Tu hii mataa tuu hii pita hain

B| ---------------------------------3--1--

E| --5---5--5--3--5---1---3--1----------

Tu hii too radha ka shyamm

E| --8--8--8--8--8--5--6-5--1--3---5--1--

Hey raam hey raam

B| --1------------------------

E| -------1---3---5--3--1---

Hey raam hey raam

B| --1------------------------

E| -------1---3---5--3--1---

Tuu antaryamii sabka swaami

B| ---------------------------------3--1--

E| --5---5--5--3--5---1---3--1----------

Tere charnoo main charoo dhaam

E| --8--8--8--8--8--5--6-5--1--3---5--1--

Hey raam hey raam

B| --1------------------------

E| -------1---3---5--3--1---

Hey raam hey raam

B| --1------------------------

E| -------1---3---5--3--1---

Tu hii bigadee tuu hii sawareen

B| ---------------------------------3--1--

E| --5---5--5--3--5---1---3--1----------

Is jagg ke saree kaam

E| --8--8--8--8--8--5--6-5--1--3---5--1--

Hey raam hey raam

B| --1------------------------

E| -------1---3---5--3--1---

Hey raam hey raam

B| --1------------------------

E| -------1---3---5--3--1---

Tuu hii jagdaataa vishwaavidhaataa

Tuu hii subaah tuu hi shaamm

Hey raam hey raam

Hey raam hey raam

Hey raam hey raam

Hey raam hey raam

jagg mee saanchoo teroo naam

Hey raam hey raam

Hey raam hey raam

Tuu hii mataa tuu hii pitaa hain

Tuu hii toh Radhaa kaa Shyamm

Hey raam hey raam

Hey raam hey raam

Tuu antaryamii sabkaah swaami

Teree charnoon main charoo dhaam

Hey raam hey raam

Hey raam hey raam

Tuu hee bigaadee tuu hi sawaareen

Is jagg kee saree kaam

Hey raam hey raam

Hey raam hey raam

Tuu hee jagdaataa vishwaavidhaataa

Tuu hee subaah tuuhi shaamm

Hey raam hey raam

Hey raam hey raam

Hey raam hey raam

Hey raam hey raam

jagg mee sanchoo teero naamm

Hey raam hey raam

Hey raam hey raam

Tuu hii maataa tuu hii pitaa hain

Tuu hii toh radhaa kaa Shyaam

Hey raam hey raam

Hey raam hey raam

Tuu antaryamii sabkaah swaami

Teree charnoon main charoo dhaam

Hey raam hey raam

Hey raam hey raam

Tuu hee bigaadee tuu hi sawaareen

Is jagg kee saree kaam

Hey raam hey raam

Hey raam hey raam

Tuu hii jagdaataa vishwaavidhaataa

Tuu hii subaah tuu hi shaamm

Hey raam hey raam

Hey raam hey raam

Leave a Comment