Guru Brahma Guru Vishnu Guitar Tabs | VERY EASY

 CLICK HERE TO GET BEST DEALS ON AMAZON. 

Guru Brahma Guru Vishnu Guitar Tabs Is Now Available On NotationsWorld. Hope This Tabs Is Useful For You. For More Guitar Tabs Keep Follow NotationsWorld.

Gururr brahmaa

B| --5--5---3--5---5---

Gururr vishnuu

B| --3--3---0--3---3---

Gururr devoo

B| --0--3--0--3---3---

Maheshwaraahaa

B| --5--3---1--1--1---

Guruu saakshaatt

E| --0--3---0--3---3---

Parabrahmaa

E| --3--5---5--3---0---

Tasmaii srii

B| --3---3---3---

Guravea namahaa

B| ---------------3--1--1---

E| --0--3--0---------------

Gururr brahmaa

B| --5--5---3--5---5---

Gururr vishnuu

B| --3--3---0--3---3---

Gururr devoo

B| --0--3--0--3---3---

Maheshwaraahaa

B| --5--3---1--1--1---

Guruu saakshaatt

E| --0--3---0--3---3---

Parabrahmaa

E| --3--5---5--3---0---

Tasmaii srii

B| --3---3---3---

Guravea namahaa

B| ---------------3--1--1---

E| --0--3--0---------------

Leave a Comment