Woh Kisna Hai Guitar Tabs For Beginners | VERY EASY

 CLICK HERE TO GET BEST DEALS ON AMAZON. 

Woh Kisna Hai Guitar Tabs Is Now Available On NotationsWorld. Hope This Tabs Is Useful For You. For More Guitar Tabs Keep Follow NotationsWorld.

Joo hain albeelaa

G| --3------------------------

B| --------6---4-3-1---4----

mad nainoo waalaa

G| -------3--------------3--------

B| -3-1---------3----1-------1----

Jiss kii deewaani

G| --3------------------------

B| --------6---4-3-1---4----

brij kii harr baala

G| -------3--------------3--------

B| -3-1---------3----1-------1----

Woh krishna hain

G| --2--0--2--3---

Woh krishna hain

G| --2--0--2--3---

Woh krishna hain

G| --2--0--2--3---

Woh krishna hain....

G| --2--0--2-----------------

D| --------------1----4-3-1--

Woh krishna hain

G| --2--0--2--3---

Joo hain albeelaa

G| --3------------------------

B| --------6---4-3-1---4----

mad nainoo waalaa

G| -------3--------------3--------

B| -3-1---------3----1-------1----

Jiss kii deewaani

G| --3------------------------

B| --------6---4-3-1---4----

brij kii harr baala

G| -------3--------------3--------

B| -3-1---------3----1-------1----

Woh krishna hain

G| --2--0--2--3---

Woh krishna hain

G| --2--0--2--3---

Woh krishna hain....

G| --2--0--2-----------------

D| --------------1----4-3-1--

Woh krishna hain

G| --2--0--2--3---

Pyaar main doobe pyaar main khooyi

Pyaar ki dhun main jaagi na sooyi

Pyaar main doobe pyaar main khooyi

Pyaar kii dhun main jaagi na sooyi

Duniyaa see hain woh anjaani

Sabh keehte hain preem deewaani

Kisnaa see milaati hain

Bhool kee har bandhan

Hooo kisnaa kii

Maalaa japati hain wooh joogan

Nainoon main sansoon main man main kisnaa

Harr pal hain jivan main jiskee kisnaa

Wooh radhaa hain wooh radhaa hain hain

Wooh radhaa hain raadha hain

Madhur madhur saa roop hain jiskaa

Shwet shwet rangg jiskaa

Sundar tann mann sundarr chitwan

Sundarr hain angg jiskaa

Pyaar hain saagar see bhi gehraa

Kisnaa kee sang jiskaa

Woh radhaa hain aee woh radhaa hain aee

Woh radhaa hain radhaa hain

Joo hain albelaa mad nainoo waala

Jiss kee deewaani brij kii har baala

Woh kisnaa hain woh kisnaa hain

Woh kisnaa hain kisnaa

Nainoon main saanson main man main kisnaa

Harr pal hain jeevan main jiskee kisnaa

Wooh raadha hain wooh raadha hain

Wooh raadha hain raadha hain

Leave a Comment