Sukh Karta Dukh Harta Guitar Tabs For Beginners | VERY EASY

 CLICK HERE TO GET BEST DEALS ON AMAZON. 

Sukh Karta Dukh Harta Guitar Tabs Is Now Available On NotationsWorld. Hope This Tabs Is Useful For You. For More Guitar Tabs Keep Follow NotationsWorld.

Sukh kartaa dukhhartaa

G| --0--0---------------------

B| -----------1--1--1-1-1--1--

Vartaa vighnaachi

B| --1--3--1--1--0--

Noorvii poorvii preem 

B| --1--3--3-3-3-3---

Krupyaa jayaachi

B| --0--0--1--1--1--

Sarwaangi sundarr 

G| --0--------------------

B| -------1--1--1-1-1--1--

Utisheendu raachi

B| --1--3--1--1--0--

Kanthii jhalkee maad 

B| --1--3--3-3-3-3---

Mukhtaa padhanchii

B| --0--0--1--1--1--

Jay devv jay devv

G| --0----------------

B| -------1---1-1--1--

Jay mangal moorti

B| --1--3--1--1--0--

Darshan martee maan kamaana purtii

B| --1--3--5--6--5--3--1--3--1--3--5---

Jay devv jay devv

B| --3--1---1-1--1---

ratnakhachit pharaa tujhh gaurikumraa

chandanaachii uti kumkumkesharaa

hirejaditt mukut shobhatoo baraa

runjhunatii nupuree

                     (x2) 

charanii ghagriyaa

jaideev jaideev jaii mangal moorti 

lambodarr pitaambarr phanivarvandanaa

saral sond vakratundaa trinayanaa

dass ramachaa vat pahee sadanaa

sankati pavavee nirvani rakshavee survarvandanaa

jaidevv jaidevv jai mangal moorti

Leave a Comment