Choti Choti Gaiya Guitar Tabs For Beginners | VERY EASY

 CLICK HERE TO GET BEST DEALS ON AMAZON. 

Choti Choti Gaiya Guitar Tabs Is Now Available On NotationsWorld. Hope This Tabs Is Useful For You. For More Guitar Tabs Keep Follow NotationsWorld.

Chooti chooti gaiyaa choote choote gwaal

B| --3--3-----------------------------------------

E| -----------3--3--3---5-3-1--1--3--5--3--5--

Chooti chooti gaiyaa choote choote gwaal

B| --3--3-----------------------------------------

E| -----------3--3--3---5-3-1--1--3--5--3--5--

Chooto soo meero madan goopal

E| --10--10--8--8--5--5--3--1--3--5--3--3--

Chooti chooti gaiyaa choote choote gwaal

B| --3--3-----------------------------------------

E| -----------3--3--3---5-3-1--1--3--5--3--5--

Chooti chooti gaiyaa choote choote gwaal

B| --3--3-----------------------------------------

E| -----------3--3--3---5-3-1--1--3--5--3--5--

Chooto soo meero madan goopal

E| --10--10--8--8--5--5--3--1--3--5--3--3--

Aagee aagee gaiyaa peechhe peechhe gwaal


E| --10--10--10--8--10---10--8--8--8--8--5--8--

Beech main meero madan goopal

E| --8-10-10--8--8--5--5--3--1--3--5--3--3--

Chooti chooti gaiyaa choote choote gwaal

B| --3--3-----------------------------------------

E| -----------3--3--3---5-3-1--1--3--5--3--5--

Chooti chooti gaiyaa choote choote gwaal

B| --3--3-----------------------------------------

E| -----------3--3--3---5-3-1--1--3--5--3--5--

Chotoo soo meero madan goopal

E| --10--10--8--8--5--5--3--1--3--5--3--3--

Kaari kaari gaiyaa gooree gooree gwaal

Shyaam varan meero madan goopal

Chooti chooti gaiyaan

Ghaas khayee gaiyaa doodh pivee gwaal

Makkhan khaave meero madan goopal

Chooti chooti gaiyaan

Chooti chooti lakuti choote choote haath

Bansi bajaave meero madan goopal

Chooti chooti gaiyaan

Chooti chooti sakhiyaan madhubaan baag

Raas rachaave meero madan goopal

Chooti chooti gaiyaan

Chooti chooti gaiyaa chotee chotee gwaal

Chotoo soo meero madan goopal

Leave a Comment