Labon Ko Guitar Tabs For Beginners | Bhool Bhulaiyaa

 CLICK HERE TO GET BEST DEALS ON AMAZON. 

Labon Ko Guitar Tabs Is Now Available On NotationsWorld. Hope This Tabs Is Useful For You. For More Guitar Tabs Keep Follow NotationsWorld.

Labooun koo labooun pee sajaao

E| --7-7---8---5-5---7---3-3---5---

Kyaa hooun tum mujhe abb bataao

E| --7--10--8---5-5---7---3-3---5---

Labooun koo labooun pee sajaao

E| --7-7---8---5-5---7---3-3---5---

Kyaa hooun tum mujhe abb bataao

E| --7--10--8---5-5---7---3-3---5---

Toodhdo khudko tumm

E| --0--0--7---0--0--10---

Baahooun main meri

E| --10---8---7---8---7---

Baahooun main meri

E| --10---8---7---8---7---

Baahooun main meri

E| --12---10---8---8---10---

Baahooun main

E| --12---7---5--3----

Baahooun main meri

E| --10---8---7---8---7---

Baahooun main meri

E| --10---8---7---8---7---

Baahooun main meri

E| --12---10---8---8---10---

Baahooun main

E| --12---7---5--3----

Aaaaaa.. aaaaa..

E| --10---8---7---8---7---

Aaaaaa.. aaaaa..

E| --10---8---7---8---7---

Aaaaaa.. aaaaa..

E| --12---10---8---8---10---

Aaaaaa.. aaaaa..

E| --12---7---5--3----

Teree ehsaas soon main bheegee lamhaato main

Mujhkoo doobaa tishnagi sii hai

Teri adaao see dilkash khataaao see

Inn lamhoo main zindagii sii hain

Hayaa koo zaraa bhool jaao

Meree hi taraah peesh aaoo

Koo bhi doo khud koo tumm

Raatoon main meeri

Raatoon main meeri

Raatoon main meeri

Raatoon main

Aaaaa..... aaaaa......

Laboon koo Laboon pee sajaao

Kyaa ho tum mujhee ab bataao

Kyaa ho tum mujhee ab bataao

Teree zajbaaton meein mehki sii saasoon main

Yeh joo mehek Sandali sii hain

Dil kii panaahon main beekhri sii aahoon main

Soone ki khwaaish jaagi si hain

Chehree see chehraa chupaoo

Senee ki dhaddkan sunoo

Dekhloo khud koo tumm

Ankhoon main mari

Ankhoon main mari

Ankhoon main mari

Ankhoon mainĀ 

Aaaaa..... aaaaa......

Laboon koo Laboon pee sajaao

Kyaa ho tum mujhee ab bataao

Leave a Comment