In Dino Guitar Tabs For Beginners | Life In A Metro | VERY EASY

 CLICK HERE TO GET BEST DEALS ON AMAZON. 

In Dino Guitar Tabs Is Now Available On NotationsWorld. Hope This Tabs Is Useful For You. For More Guitar Tabs Keep Follow NotationsWorld.

In dinoo dil meraa

B| --5--3--6--5---3-1---5--3--6--5---

Mujhsee hain keh rahaa

B| --5--3--6--5---3-1---5--3--6--5---

Tuu khwaabh sajaa

B| ----------------3----------1--1-------

E| --3---1---0---------0----------------

Tu jeelee zaraa..

B| -----------------------3--------1--1----1--------3---

E| --3---5--3--1---0---------0---------------0--------

Hai tujhee 

B| --0--0--1--5--3--6-5---

Bhin ijaazat

G| ---------2--------------

B| --1-0---------0-1--3--

Karlee too 

B| --1--0--1--1--5--3--6-5---

Bhin mohaabbat

G| ---------2--------------

B| --1-0---------0-0--1--

Hain tujhee 

G| --------------------0--

B| --0--0--1--0--1--------

Bhin ijaazat

G| --0-----------------

B| ---------0--0--3---

Karlee too

B| --1--0--1--1--5--3--6-5---

Bhin mohaabbat

G| ---------2--------------

B| --1-0--------0-0--1--

In dinoo dil meraa

B| --5--3--6--5---3-1---5--3--6--5---

Mujhsee hain keh rahaa

B| --5--3--6--5---3-1---5--3--6--5---

Tuu khwaabh sajaa

B| ----------------3----------1--1-------

E| --3---1---0---------0----------------

Tu jeelee zaraa..

B| -----------------------3--------1--1----1--------3---

E| --3---5--3--1---0---------0---------------0--------

Hai tujhee 

B| --0--0--1--5--3--6-5---

Bhin ijaazat

G| ---------2--------------

B| --1-0---------0-1--3--

Karlee too 

B| --1--0--1--1--5--3--6-5---

Bhin mohaabbat

G| ---------2--------------

B| --1-0---------0-0--1--

Hain tujhee 

G| --------------------0--

B| --0--0--1--0--1--------

Bhin ijaazat

G| --0-----------------

B| ---------0--0--3---

Karlee too

B| --1--0--1--1--5--3--6-5---

Bhin mohaabbat

G| ---------2--------------

B| --1-0--------0-0--1--

Beerang sii hain badhi zindagii

Kuch rangg toh bharuu

Main apni tanhaain kee vastee

Abb kuch toh karuu

Beerang sii hain badhi zindagii

Kuch rangg toh bharuu

Main apni tanhaain kee vastee

Abb kuch toh karuu

Jabb milee thoodi fursatt

Jabb milee thoodi fursatt

Khud see karlee mohaabbat

Hain tujhee bhii ijaazat

Karlee too bhi mohaabbat

Uskoo chhupaa kar main

Sabh see Kabhi lee chaluu

Kahi doorr

Aankhon kee pyaaloo see

Peetaa rahoon

Uskee chehree kaa noor

Uskoo chupaa kar main

Sab see Kabhi lee chaloo

Kaheen door

Aankhon kee pyaaloo see

peetaa rahoo

Uskee chehree kaa noor

Iss zamanee see chhup kar

Iss zamane see chhup kar

Poori kar lu main hasratt

Hain tujhee bhin ijaazat

Karlee too bhi mohaabbat

Inn dinoo dil meraaa

Mujhsee hain keh rahaa

Too khwaab sajaa

Too jeelee zaraa

Hain tujhee bhi ijaazat

Karlee too bhin mohabbat

Hain tujhee bhi ijaazat

Karlee too bhi mohaabbat

Leave a Comment