Ishaqzaade Guitar tabs For Beginners | Title Song | VERY EASY

 CLICK HERE TO GET BEST DEALS ON AMAZON. 

Ishaqzaade Guitar Tabs Is Now Available On NotationsWorld. Hope This Tabs Is Useful For You. For More Guitar Tabs Keep Follow NotationsWorld.

Ikk aur badhnee lagee joo

B| --1--0--3---3-3---3--3-3--3---

Ik door bandhne lagee joo

G| --------------2-2--2--0-0--0---

B| --5--3--1------------------------

Ik shor karnee lagee joo doo dil

B| --1--0--3--3-3--3--3-3--3-------------

E| --------------------------------3--1-0---

Ik chaal chalnee lagee jab

B| --1--0--3---3-3---3--3-3--3---

Ikk dhaal dhalnee lagee jab

G| --------------2-2--2--0-0--0---

B| --5--3--1------------------------

Ikk thaal chakhnee lagee jab doo dil

B| --1--0--3--3-3--3--3-3--3-------------

E| --------------------------------3--1-0---

Judnee lagee

G| ---------------------2--

B| --3--5--5--3--1--------

lagee deo dilon kee jab kinaree

G| -------2----2--0--2--0---2--0--2--0--

B| --1---------------------------------------

Udnee lagee

G| ---------------------2--

B| --3--5--5--3--1--------

Ishaqzaadee ishaqzaadee

B| --1-1-1-0--1--5-5-5-3-6-5--

Ishaqzaadee

G| --------------2---

B| --1-1-1-0---------

Ishaqzaadee

B| --1-1-1-0--1--5-5-5-3-6-5--

Ishaqzaadee

G| --------------2---

B| --1-1-1-0---------

Ishaqzaadee

G| ---------------------2---

B| --1-1-1-0--1---0--------

Ishaqzaadee

B| --1-1-1-0--1---3-5--5-3---

Ishaqzaadee

B| --1-1-1-0--3--1----

Hoo dil pee joo bhi bairr beetaa

Dil pee joo bhi bair beetaa

Teeri khair pee vaar diyaa

Jaljalaa kar joo bhi jeetaa

Teree pyaar pee haar diyaa

Humkoo khud main shamil karr lee

Ab toh khud kee qaabil karr lee

Rang tumharee rangg jayengee

Sang tumharee sangg jayengee

Ishaqzaadee

Ishaqzaadee

Ishaqzaadee

Ishaqzaadee

Ishaqzaadee

Ishaqzaadee

Ishaqzaadee

Ishaqzaadee

Ishaqzaadee

Ishaqzaadee

Hoo seele seelee sapnee apnee

Seele seelee sapnee apnee

Pyar kii dhoop see sookhengee

Neelee naino ki doo nehree

Dil kee baandh see rokengee

Khaak see khwaabon koo bun lee

Raakh see bhii khushiyan chun lee

Bhujtee jaltee chaltee jaayein

Girtee uthtee badhtee jaayein

Ishaqzaadee

Ishaqzaadee

Ishaqzaadee

Ishaqzaadee

Ishaqzaadee

Ikk aur badhnee lagee hain

Ikk dor bandhnee lagee hain

Ikk shor karnee lageey hain

Doo dil

Ikk chaal chalnee lagee hain

Ikk dhaal dhalnee lagey hain

Ikk thaal chakhnee lageey hain

Doo dil

Judnee lagee lagee doo dilon kee jab kinaaree

Udnee lagee

Ishaqzaadee

Ishaqzaadee

Ishaqzaadee

Ishaqzaadee

Ishaqzaadee

Leave a Comment