Satranga Guitar Tabs For Beginners | Animal | VERY EASY

Satranga Guitar Tabs For Beginners | Animal | VERY EASY


PLEASE TRY TO AVOID AUTO TRANSLATION OF PAGES, IT MAY DISRUPT THE ALIGNMENT

Naina Guitar Tabs Is Now Available On NotationsWorld. Hope This Tabs Is Useful For You. For More Guitar Tabs Keep Follow NotationsWorld.

Aadha tera ishq aadha mera

B| -----------------------10---8----8-------------------------

E| --10--8--8-8---7----------------------12--10-10---10---

Aise ho poora chandrama

B| ----------------10--8---10--8--8--

E| --10--8--8-7-------------------------

Hooo taara tera ik taara mera

B| -----------------------------10---8----8-------------------------

E| --8----10--8--8-8---7----------------------12--10-10---10----

Baaki andhera aasmaan

B| -----------------10--8---10--8--8--

E| --10--8--8-7------------------------

Na tere sang laage

B| --10--10--8--5--3--5---------

E| ---------------------------5---

Bandhe jo pipal pe dhaage

E| --3--5--7--10--8--7--5-3-5---3---

Yeh surme ke dhare

B| --10--10--8--5--3--5---------

E| ---------------------------5---

Behte hai nazre bacha ke

B| ----------8--8-------------------------

E| --7--8------------12---10-10---10---

Badrang mein satrangaĀ 

E| --12--10--10--12--12---10--8--8--10--10---

Hai yeh ishq re

E| --8--7--5---7-7--5---

Jogi main aur ganga hai yeh ishq re

E| --10--8--8--10--10---8--7--5--3---5--3--3---3--3---

Badrang mein satrangaĀ 

E| --12--10--10--12--12---10--8--8--10--10---

Hai yeh ishq re

E| --8--7--5---7-7--5---

Jogi main aur ganga hai yeh ishq re

E| --10--8--8--10--10---8--7--5--3---5--3--3---3--3---

PLEASE TRY TO AVOID AUTO TRANSLATION OF PAGES, IT MAY DISRUPT THE ALIGNMENT

Leave a Comment