Tu Itni Khoobsurat Hai Guitar Tabs For Beginners | VERY EASY

 CLICK HERE TO GET BEST DEALS ON AMAZON. 

Tu Itni Khoobsurat Hai Guitar Tabs Is Now Available On NotationsWorld. Hope This Tabs Is Useful For You. For More Guitar Tabs Keep Follow NotationsWorld.

Tuu itni khoobsuurat hain

G| --0--------------------3--5--7--5---

B| -------4-4-3-1---1-------------------

Fidaa deedaar pee teree

G| --1-1--1---3--5--3--1--0---

Tuu itni khoobsuurat hain

G| --0--------------------3--5--7--5---

B| -------4-4-3-1---1-------------------

Fidaa deedaar pee teree

G| --1-1--1---3--5--3--1--0---

Muqammal ishqq hoo meraa

G| --0--------------------3--5--7--5---

B| -------4-4-3-1---1-------------------

Zaraa saa pyaar to dee dee

G| --1-1--1---3--5--3--1--0---

Falak kadamoon pee aa jhukee

G| --0-----------------------------

B| -------8-6-6-4-4--3-4--3-4--

Hasen lamhaat wo dee dee

B| --6-4-3-1--3--1-3--------3--

E| -----------------------3------

Teree sang bheeg jaaunn mein

G| --0-----------------------------

B| -------8-6-6-4-4--3-4--3-4--

Kabhii barsaat wohh dee dee

B| --6-4-3-1--3--1-3--------3--

E| -----------------------3------

Teree binaa jeenaa padee

G| --8-7-7-5---3--5--7--3--

Wohh pal mujhee na dee

G| --3-1-1---5-3--1--0--

Tuu itni khoobsuurat hain

G| --0--------------------3--5--7--5---

B| -------4-4-3-1---1-------------------

Fidaa deedaar pee teree

G| --1-1--1---3--5--3--1--0---

Tuu hii shaamil rahaa dua main mari

Naam teraa raha zubaan pee meeri

Zikrr teraa fikr terii harr ghadii dil meinn meree

Falakk kadamoon pee aa jhukee

Haseen lamhat wooh dee dee

Teree sangg bheegg jaaun mein

Kabhii barsaat wooh dee dee

Teree binaa jeenaa padee

Wooh pal mujhee na dee

Tuu itni khoobsoorat hain

Fidaa deedaar pee teree

Ishqq kii dastaan juda hain meeri

Tuu hi donoo jahaan bakhudaa hain meeri

Yaar meree sirf teeri tishnagii lab pee meree

Falak kadamoon pee aa jhukee

Haseen lamhaat wooh dee dee

Teree sangg bheeg jaaun mein

Kabhii barsaat wooh dee dee

Teree binaa jeenaa padee

Wooh pal mujhee na dee

Tuu itnii khoobsoorat hain

Fidaa deedaar pee teree

Muqammal ishqq hoo meraa

Zaraa saa pyaar to dee dee

Falakk kadamoon pee aa jhukee

Haseen lamhat wo dee dee

Teree sangg bheeg jaaun mein

Kabhii barsaat wooh dee dee

Teree binaa jeenaa padee

Wooh pal mujhee na dee

Tuu itnii khoobsoorat hain

Fidaa deedaar pee teree

Tuu itni khoobsoorat hain

Fidaa deedaar pee teree

Leave a Comment