Bandeya Guitar Tabs For Beginners | Dil Juunglee | VERY EASY

 CLICK HERE TO GET BEST DEALS ON AMAZON. 

Bandeya Guitar Tabs Is Now Available On NotationsWorld. Hope This Tabs Is Useful For You. For More Guitar Tabs Keep Follow NotationsWorld.

Chal chal ve tu bandeya

G| --4--4---2--4--4--4--4--4--4-5-4-2--

Uss galiye Jahaan koi 

G| --2--4--4----------------4--2--2--

B| --------------5--3---3--------------

Kisi ko na jaane

D| ------------------4--5--7---

G| --2--4--2--0---------------

Chal chal ve tu bandeya

G| --4--4---2--4--4--4--4--4--4-5-4-2--

Uss galiye Jahaan koi 

G| --2--4--4----------------4--2--2--

B| --------------5--3---3--------------

Kisi ko na jaane

D| ------------------4--5--7---

G| --2--4--2--0---------------

Kya rehna wahaan par

G| --4--4---2--4--4--4--4--4--4-5-4-2--

Sun bandeya jahaan apne 

G| --2--4--4----------------4--2--2--

B| --------------5--3---3--------------

Hi na pehchaane

D| ------------------4--5--7---

G| --2--4--2--0---------------

Reh gaye hain jo tujhme

B| --7--7-7--7--8--5--3--3---

Mere lamhe lauta de

G| --4--5--2--2-----------------

B| -----------------3--1--0--0--

Meri aankhon mein aake

B| --7--7-7--7--8--5--3--3---

Mujhe thoda rula dee..

G| --4--5--2--2-----------------

B| -----------------3--1--0--0--

Chal chal ve tu bandeya

G| --4--4---2--4--4--4--4--4--4-5-4-2--

Uss galiye jahaan koi 

G| --2--4--4----------------4--2--2--

B| --------------5--3---3--------------

Kisi ko na jaane

D| ------------------4--5--7---

G| --2--4--2--0---------------

Khwaab joo hueey haii khandaar

Khwaab hii nahin thee

Ikk neend thii neem sii haayee

Khoo diyaa hain tunee jiskoo

Teraa hii nahii thaa

Ikk haar thii jeet sii

Kitnaa rulayegaa yee toh bataa

Rabaa vee tujhee hain teere rab daa waastaa

Chal chal vee tuu bandeyaa us galiyee

Jahan kooi kisi koo naa jaanee

Kyaa rehnaa wahaan parr sun bandeyaa

Jahaan apnee hii naa pehchaanee

Hmmm..

Leave a Comment