Stay Guitar Tabs For Beginners | Justin Bieber | VERY EASY

 CLICK HERE TO GET BEST DEALS ON AMAZON. 

Stay Guitar Tabs Is Now Available On NotationsWorld. Hope This Tabs Is Useful For You. For More Guitar Tabs Keep Follow NotationsWorld.

I doo thee samee thing I told youu that I neverr wouldd

B| --1--2--1--------1-1-1-1-1-1-1-2-2--

E| -------------4------------------------

I told youu i'd changee even when I kneww i neverr could

B| --1--2--1--------1-1-1-1-1-1-1-2-2--

E| -------------4------------------------

I knoww that i can’t find nobodyy elsee ass good as youu

B| --1--2--1--------1-1-1-1-1-1-1-2-2--

E| -------------4------------------------

I need youu too stay need yoyu too stay heyy

B| --2-1-1-2-1--------2-4-4-----------

E| ---------------4--------------8--4--

I gett drunk wakee upp I am wasted still

G| ---------------------------------3--

B| --2-6--4--4--4--2-4--4--4-------

I realizee thee timee that i wasteed heree

G| ---------------------------------3--

B| --2-6--4--4--4--2-4--4--4-------

I feel likee youu can't feel thee wayy i feel

G| ---------------------------------3--

B| --2-6--4--4--4--2-4--4--4-------

Oh i’ll bee f***d up iff you can not bee right heree

B| -----------------4-4-4-6--4--2--

E| --4--1--4--1----------------------

Ohh oohh woo

G| --------3----------

B| --2-----------6---

Ohh oohh woo

G| --------3----------

B| --2-----------6---

Ohh oohh woo

G| --------3----------

B| --2-----------6---

Oh i’ll bee f**** upp if you can not bee right heree

B| -----------------4-4-4-6--4--2--

E| --4--1--4--1----------------------

I do thee same thingg i told youu that i neverr would

B| --1--2--1--------1-1-1-1-1-1-1-2-2--

E| -------------4------------------------

I told youu i'd changee evenn when i kneww i neverr could

B| --1--2--1--------1-1-1-1-1-1-1-2-2--

E| -------------4------------------------

I know that I can’t findd nobodyy elsee as good as youu

B| --1--2--1--------1-1-1-1-1-1-1-2-2--

E| -------------4------------------------

I need youu too stay need youu too stay heyy

B| --2-1-1-2-1--------2-4-4-----------

E| ---------------4--------------8--4--

I doo thee same thingg i told youu that i neverr would

B| --1--2--1--------1-1-1-1-1-1-1-2-2--

E| -------------4------------------------

I told youu i'd changee evenn when i knew i neverr could

B| --1--2--1--------1-1-1-1-1-1-1-2-2--

E| -------------4------------------------

I knoww that i can’t findd nobodyy elsee as good as youu

B| --1--2--1--------1-1-1-1-1-1-1-2-2--

E| -------------4------------------------

I need youu too stayy need you too stayy heyy

B| --2-1-1-2-1--------2-4-4-----------

E| ---------------4--------------8--4--

Leave a Comment