Lamborghini Guitar tabs For Beginners | Jai Mummy Di

 CLICK HERE TO GET BEST DEALS ON AMAZON. 

Lamborghini Guitar tabs Is Now Available On NotationsWorld. Hope This Tabs Is Useful For You. For More Guitar Tabs Keep Follow NotationsWorld.

lamborghiini ghumaayi jaanee oo

B| --2--4-------------------------4-2--4-6-4-6--

E| ---------4--4--2-1-2--2--1---------------------

 lamborghiini ghumaayi jaanee oo

B| --2--4-------------------------4-2--4-6-4-6--

E| ---------4--4--2-1-2--2--1---------------------

Chad ke girlfriendd nu

G| --------------------------3--

B| --4-4-4--2--4--2--1-------

Dooji kudiyan nuu buthaayi jaanee oo

G| --3-------------------------------------

B| -----1--4--4--4--2--6--4--2--1--2--

Chad ke girlfriendd nu

G| --------------------------3--

B| --4-4-4--2--4--2--1-------

Dooji kudiyan nuy buthaayi jaanee oo

G| --3--------------------------------------

B| ------1--4--4--4--2--6--4--2--1--2--

Kaalii gogle ann nu chakk chakk ke

B| --2--4----------------------------4-2--4-6-4-6--

E| -----------4--4--2-1-2--2--1---------------------

Kaalii gogle ann nu chakk chakk ke

B| --2--4----------------------------4-2--4-6-4-6--

E| -----------4--4--2-1-2--2--1---------------------

Dill sada burnn karke

G| --------------------------3--

B| --4-4-4--2--4--2--1-------

Ankhaa horaa aan naal milaayi jaanee oo

G| --3-------------------------------------

B| ------1--4--4--4--2--6--4--2--1--2--

Dil saddaa burnn karke

G| --------------------------3--

B| --4-4-4--2--4--2--1-------

Ankhaa horaa an naal milaayi jaanee oo

G| --3--------------------------------------

B| ------1--4--4--4--2--6--4--2--1--2--

Kyuun

Teriyaan saaheliyaan nee lift meehto toh maangi aee

Kehndiyaan sii gadi aee ferrari toh vi changii aee

Meraa ki kasoor tuhiyoon introo karayaa si

Ankhiyan naa lad jaan taan hii goglee paaya sii

Gallaa jhuti aa banayii jaani oo

Gallaa jhuti aa banayii jaani oo

Fraud saadee naal karkee

Meraa friendaa nuu patayi jaanee oo

Fraud saadee naal karkee

Meraa friendaa nu pataayi jaanee oo

Aaj kal dee mundee aa dee chinesee baatee nee

Mintaa vich tut jaanee ainaa vi iraadee nee

Aajkal dee mundee aa dee chinesee baatee nee

Mintaa vich tut jaanee ainaa vi iraadee

Saadee aivaayi udaayi jaanee ooo

Saader aivaayi udaayi jaanee ooo

Report saadii check karr loo

Aivayi gallaa tuu badhaayi jaanee oo

Report saadi checkk kar loo

Aivayii galla tuu badhaayi jaanee oo

Kaali gogle an nuu chakk chakk kee

Kaali gogle an nuu chakk chakk kee

Dil saddaa burn karkee

Ankhaa hora an naal milaayi jaanee oo

Dil saddaa burnn karkee

Ankhaa hora an naal milaayi jaanee o....

Kyuu

Leave a Comment