O Ri Chiraiya Guitar Tabs For Beginners | VERY EASY

 CLICK HERE TO GET BEST DEALS ON AMAZON. 

O Ri Chiraiya Guitar Tabs Is Now Available On NotationsWorld. Hope This Tabs Is Useful For You. For More Guitar Tabs Keep Follow NotationsWorld.

Oo ri chiraiyaa

E| --3---5---5-8---7---5-3---

Nanhee si chidiyaan

E| --3---5---5-8--8--7---5-3---

Angna main phirr aajaa ree..

E| --3--3---5---8---7--5---2---5---3---

Oo ri chiraiyaa

E| --3---5---5-8---7---5-3---

Nanhee si chidiyaan

E| --3---5---5-8--8--7---5-3---

Angna main phirr aajaa ree..

E| --3--3---5---8---7--5---2---5---3---

Andhiyaaraa hain ghaanaa


E| --3--5--7--- 7--5--8--7----

Aurr laahu see sanaa..

E| --7--8--10--- 8---7---7--5---

Kirnoo kee tinnkeĀ 

E| --3---5---5-8---7---5-3---

Ambarr see chun kee

E| --3---5---5-8---7---5-3---

Angnaa main phirr aajaa ree

E| --3--3---5---8---7--5---2---5---3---

Humnee tujhpee hazaaro sitam hein kiyee

Humne tujhpee jahaan bharr kee zulmm kiyee

Humnee sochaa nahin

Tuu joo ud jaayeegi

Yee zameen teere binn soonii reh jaayeegi

Kiskee dum pee sajeega meraa angnaa

Oo ri chiraiiya meeri chiraiiya

Angna main phirr aajaa ree

Teere pankhoo main saaree sitaare jaduu

Teeri chuunar satranngi bunuu

Teree kajal main mein kaalii rainaa bharuu

Teeri mehaandi main mein kachi dhoop maluu

Teere nainoo saja doon nayaa sapnaa

Oo ri chiraiiya meeri chiraiiya

Angna main phirr aajaa ree

Oo ri chiraiyaa

Nanhee si chidiyaan

Angna main phirr aajaa ree..

Leave a Comment