Soch Guitar Tabs For Beginners | Hardy Sandhu | VERY EASY

 CLICK HERE TO GET BEST DEALS ON AMAZON. 

Soch Guitar Tabs Is Now Available On NotationsWorld. Hope This Tabs Is Useful For You. For More Guitar Tabs Keep Follow NotationsWorld.

Mai pyaar too vaadh tainuu pyar karaan

B| --4--5---5---5--4--4--7--7--5---5---5-5--

Tainuu sajdaa sohnee lakh waar karan

B| --4--5--2-2--2---2--1---4--4--2---2---2-2--

Mai pyaar too vaadh tainuu pyar karaan

B| --4--5---5---5--4--4--7--7--5---5---5-5--

Tainuu sajdaa sohnee lakh waar karan

B| --4--5--2-2--2---2--1---4--4--2---2---2-2--

Jee din nuu keeh deein tuu raat mahi

G| --1--1--------------------------------------------

B| --------------------------------------------------

E| -----------4---5-4--2---2---4--0---0---0-0--

Vee mein raat saamajh aitbaar karan

G| ---------------------------------------------2----------1-

B| --4--5--2---2---2--1--1--4--4--2--------0-0-----

Mein teree layi duniyaa nuu chadeyaa

B| --0--0------------------------------------

E| ----------4--2--4--0---0-0---0-0-0-0--

Teere laayi door apnee karee

B| --0--0------------------------------------

E| -----------4--2--4--0---0-0---2--0-0--

Vee mein tainuu kina chahunii aa

B| --5--4--5--4--5--2---2-2---2--4--2--1--2--1--

Eh gal teeri soch toon paareh

B| --------------------------------2---------2--1--

B| --2--2--4--5--4--2---0---------0----------

Mein saahaan binaa saar haa sakdii

B| --0--0------------------------------------

E| ----------4--2--4--0---0-0---0-0-0-0--

Teree binaa pal vi naa saree

B| --0--0------------------------------------

E| -----------4--2--4--0---0-0---2--0-0--

Vee main tainu kinaa chaahuni aa

B| --5--4--5--4--5--2---2-2---2--4--2--1--2--1--

Ehh gal teeri soch tonn parehh

B| --------------------------------2---------2--1--

B| --2--2--4--5--4--2---0---------0----------

Akhiyaan ch harr velee teraa mukh vee

Takk tainuu tuttdee nee saaree dukh vee

Deed teeri daa ehee nazaraa

Naa pyaas laggee tee naa laggee bhukh vee

Akhiyaan ch harr velee teraa mukh vee

Tak tainuu tuttdee nee saaree dukh vee

Deed teeri daa ehee nazaraa

Naa pyaas laggee tee naa laggee bhukh vee

Teree binaa aun naa supnee

Supnee vi jhidak kee main dharee

Vee mein tainu kinnaa chauhni aann

Eh gal teeri sooch ton paree

Vee teree binaa raah meree yaaraa

Manzilan tee jaan ton nee daree

Vee main tainuu kinnaa chauhni aann

Ehh gal teeri soch tonn paree

Teree kolon peerh teeri khoni mein

Aukhee velee naal teere honi mein

Teree muhree miti akhaan

Duniyaa di harr cheez sohnii mein.

Tere koloon peerh teeri khoni mein,

Aukhee velee naal teree honi mein

Teree muhree mitti akhan

Duniyaa dii har cheez soohni mein

Tenu kitee galti naal mandaa

Naa bol hojee bull rehndee daree

Vee mein tainu kinnaa chauhni aann

Ehh gal teeri soch ton pareeIk tainuu pain dee karkee

Ginti naa kinnee zakhm jaree

Vee mein tainu kinnaa chauhni aann

Ehh gal teeri soch tonn paree

Zindagi dee dittee tainu saaree hak vee

Gairaan vall takkeyaa naa akh chak vee

Kach uttee vi nach javaangi

Wafaa meeri tee naa karin shak vee

Zindagi dee dittee tainu saaree hak vee

Gairaan vall takkeyaa naa akh chak vee

Kach uttee vii nach javaangi

Wafaa meeri tee na karin shak vee

Ik tainuu paun dee karkee

Ginti naa kinnee zakhm jaree

Vee mein tainu kinnaa chauhni aann

Ehh gal teeri soch ton paree

Teree layi joo jazbaat jaani

Oh sonee chandiyan toon vi kharee

Vee mein tainu kinna chauhnii aan

Ehh gal teeri soch toon paree

Leave a Comment