Naina Guitar Tabs For Beginners | Danngal | VERY EASY

 CLICK HERE TO GET BEST DEALS ON AMAZON. 

Naina Guitar Tabs Is Now Available On NotationsWorld. Hope This Tabs Is Useful For You. For More Guitar Tabs Keep Follow NotationsWorld.

Nainaa

B| --2-------------

E| --------6--6---

Joo saanjhee khwaab deekhte 

E| --7--6---7--6---7--6---7--9--

Thee nainaa

E| --7--6--7---11-11---

Bichad kee aaj roo diyee hein yoon

E| --6--4---6--4---6--4---6--9--7--6--6---

Nainaa

B| --2-------------

E| --------6--6---

Joo milkee raat jaagtee 

E| --7--6---7--6---7--6---7--9--

Thee nainaa..

E| --7--6--7---11-11---

Seharr main palkee mechtee hein yoon

E| --6--4---6--4---6--4---6--9--7--6--6---

Judaa huyee kadamm

B| -----------2---------------

E| --2--1--------6---2--1---

Jinhoone lii

B| --4----------------

E| -------6---2--1---

Thii yeeh kasamm

B| --4----------------------

E| -------7---9-11--9-7---

Milkee chaleenge hardumm

E| --7--6--7-6--7--6--4---

Abb baatte hein yee gam

B| --4---------------------------

E| ------7--7--6--9--7--6--4--

Bheengee nainaa..

E| --6-4-4-2-2---6-6---

Joo khidkiyoon see jhaanktee

E| --7--6---7--6---7--6---7--9--

Thee nainaa..

E| --7--6--7---11-11---

Ghutan main bandh hoo gayee hein yoon

E| --6--4--6--4---6--4---6--9--7--6--6---

Saanss hairaan hain

Man pareeshaan hain

Hoo rahi sii kyoon ruaansaa yee meeri jaan hain

Kyun niraasha see hain

Aass haari huyii

Kyoon sawaalon kaa uthaa saa

Dil main toofaan hain

Nainaa thee aasmaan kee sitaaree

Nainaa grahan main aaj tootte hein yoon

Nainaa kabhi joo dhoop seenkte thee

Nainaa thehar kee chaaon dhoondhtee hein yoon

Judaa huyee kadam

Jinhoone li thii yee kasam

Milkee chaleenge hardumm

Abb baantte hein yee gam

Bheenge naina joo sanjhee khwaab deekhte thee

Nainaa bichad kee aaj roo diyee hein yoon

Leave a Comment