Kahin To Hogi Woh Guitar Tabs For Beginners | VERY EASY

 CLICK HERE TO GET BEST DEALS ON AMAZON. 

Kahin To Hogi Woh Guitar Tabs Is Now Available On NotationsWorld. Hope This Tabs Is Useful For You. For More Guitar Tabs Keep Follow NotationsWorld.

Kaheen tooh kaheen tooh hoogi wooh

B| --1--1--3--3---1--1--3--3---1--1--3--3---

Duniyaa jahaan tuu meere saath hein

G| ---------------------------3--3---3--0--

B| --6--4--4--3--3--1--1-------------------

Chahaa main chahaa tuu aurr jaan

B| --1--1--3--3---1--1--3--3---1--1--6--3---

Bass teere meere jazbaat hein

G| ---------------------------3--3---3--0--

B| --6--4--4--3--3--1--1-------------------

Hoogi jahaan sabaa teeri

D| --3----------------------------------

G| ------0--2--3---5--5-7-5--3--3---

Palkoon kii kiranoon main

D| --3--------------------3----------

G| -------0--2--3---2--------2--0--

Loori jahaan chaand kii

D| --3----------------------------------

G| -------0--2--3---2--2--3--7-5-7--

Sunee teeri bahoon main

G| --5--7--------------------------

B| ----------6--6---3--6--6-8---

Jaanee naa kahaan wooh duniyaa hain

D| --0--3----------------3--3---5--5---

G| -----------3--5--7--------------------

Jaanee naa wooh hain bhi yaa nahin

D| --------------------------3---3--3--

G| --0--3--5--7--8---0---------------

Jahaan meeri zindagii mujhsee

D| ----------------------------3---5--5----

G| --3--2--3--2--3------------------------

B| ----------------------3------------------

Itnii khafaa nahin

D| --3---------------------------

G| -------0--0--3--2---5--3---

Jaanee naa kahaan wooh duniyaa hain

D| --0--3----------------3--3---5--5---

G| -----------3--5--7--------------------

Jaanee naa wooh hain bhi yaa nahin

D| --------------------------3---3--3--

G| --0--3--5--7--8---0---------------

Jahaan meeri zindagii mujhsee

D| ----------------------------3---5--5----

G| --3--2--3--2--3------------------------

B| ----------------------3------------------

Itnii khafaa nahin

D| --3---------------------------

G| -------0--0--3--2---5--3---

Sanseein khoo gayi hain kiski aahoon main

Main khoo gayi huu jaanee kiskii baahoon main

Manziloon see raaheein doodhtii chali

Khoo gayi hain manzil kaahin raahon main

Kaheen toh kaheen toh

Hain nashaa

Teeri meeri harr mulaaqaat main

Hooton see hooton koo

Choomti oo rehtee hain hum harr baat pee

Kehtee hain fizaa jahaan

Teeri zameen aasmaan.....

Jahaan hain tuu meeri hassi

Meeri khushii meeri jaan....

Jaanee naa kahaan wooh duniyaa hain

Jaanee naa wooh hain bhi yaa nahin

Jahaan meeri zindagii mujhsee

Itnii khafaa nahin

Jaanee naa kahaan wooh duniyaa hain

Jaanee naa wooh hain bhi yaa nahin

Jahaan meeri zindagii mujhsee

Itnii khafaa nahin

Jaanee naa kahaan wooh duniyaa hain

Jaanee naa wooh hain bhi yaa nahin

Jahaan meeri zindagii mujhsee

Itnii khafaa nahin

Leave a Comment