Zindagi Sawarn Doon Guitar Tabs For Beginners | VERY EASY

 CLICK HERE TO GET BEST DEALS ON AMAZON. 

Zindagi Sawarn Doon Guitar Tabs Is Now Available On NotationsWorld. Hope This Tabs Is Useful For You. For More Guitar Tabs Keep Follow NotationsWorld.

Zindaagi Sawaarn Donn

G| --2--------------------------------

B| -------3--3--5----------7---------

E| -------------------7-----------5---

Ek naii bahaar donn

E| --5--7--5--2--3--2--0---

Duniyaa he badal don main tooh

B| --0--5--5--8-----------------

E| -----------------9--9--7--5--

Pyaara saa chamatkaar houn

B| -------------2--0--2--3--5---

E| --3--3--3---------------------

Me kisi kaa sapnaa hoon

G| --2--------------------------------

B| -------3--3--5----------7---------

E| -------------------7-----------5---

Joo aj ban chukaa hoo sach

E| --5--5--7--5--2--3--2--0---

Abh yee meera sapnaa hain ki

B| --0--5--5--8-----------------

E| -----------------9--9--7--5--

Sabh kee sapnee sach mein karoon

B| -------------2--0--2--3--5---

E| --3--3--3---------------------

Aasmaan koo chuu loonn

E| --7--7--7--5--3--5--7--5---

Titlii bann uduu..

E| --0--2--3--0--5---

Ann ann hann

E| --7--5--3---

Mein hoon ek udtaa roboot

E| --0--9--7--5--7--5--3--

Doraemoonn

B| -----------------3--

E| --5--7--2--0-------

Maano yaa naa maano

E| --7--7--7--5--3--5--7--5--

Mein hoon ek udtaa roboot

E| --0--9--7--5--7--5--3---

Doremoon

B| ------------------3---

E| --5--7--2---0--------

Leave a Comment