Dil Ko Karaar Aaya Guitar Tabs For Beginners | VERY EASY

 CLICK HERE TO GET BEST DEALS ON AMAZON. 

Dil Ko Karaar Aaya Guitar Tabs Is Now Available On NotationsWorld. Hope This Tabs Is Useful For You. For More Guitar Tabs Keep Follow NotationsWorld.

Duaa bhi lagee naa mujhee

G| --8--6--4--3--4---6--8---6--4--

Dawa bhin lagee naa mujhee

G| --8--6--4--3--4---6--8---6--4--

Jabsee dil koo meree

G| --6--4--3--1--3---4--6---4--3--

Tuu lagaa hain

D| ------------6--4--6---

G| --4--3-----------------

Nend ratoon kii meri

G| --8--6--4--3--4---6--8---6--4--

Chahat baatoon kii meri

G| --8--6--4--3--4---6--8---6--4--

Chain koo bhi meree tunee

G| --6--4--3--1--3---4--6---4--3--

Yun thagaa hain

D| ------------6--4--6---

G| --4--3-----------------

Jabb sanseein bharu mein

B| --4--4--2--4--7--5--4--2--4--

Band ankheein karoun mein

B| --4--4--2--4--7--5--4--2--4--

Nazarr tuu yaarr 

G| --3--4--4--4-8-6---

Aayaa.....

G| --4--3--3-4--1---3-4-3---

Dil koo karaarr ayaa

G| --4--3--1--3--4---6--8---6--4--

Tujhpee hain pyaarr ayaa

G| --4--3--1--3--4---6--8---6--4--

Peehli peehli baarr ayaa

G| --6--4--3--1--3---4--6---4--3--

Oo yaraa...

D| -----------6--4--6---8--9--8---

G| --4--3---------------------------

Dil koo karaarr ayaa

G| --4--3--1--3--4---6--8---6--4--

Tujhpee hain pyaarr ayaa

G| --4--3--1--3--4---6--8---6--4--

Peehli peehli baarr ayaa

G| --6--4--3--1--3---4--6---4--3--

Oo yaraa...

D| -----------6--4--6---8--9--8---

G| --4--3---------------------------

Harr rooj pucheein yeeh hawaayein

Hum tooh bataa kee haree

Kyoon jikar teraa kartee hain humsee taaree

Harr rooj pucheein yeeh hawaayein

Hum tooh bataa kee haree

Kyoon jikar teraa kartee hain humsee taaree

Abh firr see hain teere

In hoothon pee meree

Izhaarr ayaa yaraa

Dil koo karaar ayaa

Tujhpee hain pyaar ayaa

Peehli peehli baar ayaa ooh yaraa

Dil koo karaar ayaa

Tujhpee hain pyaar ayaa

Peehli peehli baar ayaa ooh yaraa

Leave a Comment