Tera Mera Rishta Purana Guitar Tabs | Awarapan | VERY EASY

 CLICK HERE TO GET BEST DEALS ON AMAZON. 

Tera Mera Rishta Purana Guitar Tabs Is Now Available On NotationsWorld. Hope This Tabs Is Useful For You. For More Guitar Tabs Keep Follow NotationsWorld.

Teraa yakeen kyoo

D| --2--4--5--7----5--4--

mainee kiyaa nahin

D| --0--4--5--7---5--4--

Nahi tujhsee raah kyun judaa

D| --2--4--5--7---5---4--5---4--2---

Mujhpee yeh zindagii

D| --2--4--5--7----5--4--

Kartii rahii sitam

D| --0--4--5--7---5--4--

tunee hii di haii panaah

D| --0--4--5------------------------------

G| ----------------7---5--4---5--4--2---

Teraa....

G| --4-2-4-2-4---2-4-2--0--

Meraa....

D| ----------------------------4--

G| --2-0-2-0--2---0-2-0-------

Rishtaa..... puraanaa...

D| --5-4-5-4--5---4-5-4--0--0--2----

Teraa....

G| --4-2-4-2-4---2-4-2--0--

Meraa....

D| ----------------------------4--

G| --2-0-2-0--2---0-2-0-------

Rishtaa... puraanaa....

D| --5-4-5-4--5---4-5-4--0--0--2----

Teraa....

G| --4--4---7---5---4---

Meraa....

G| --2--2---5---4---2--

Rishtaa... puraanaa....

G| --0--0---4---2---0--0--2---

Hai kyaa tadap haii haii yeh kaisii sazaa

Tuu kyun mujhee aaj yaad aaa gayaa

Bechainn dinn meree bechain raat hain

Kyaa main karuu kuch bataa

Yeh meree paanv hii khud merii bediyan

Us see tuu mujhee choodaa

Teraa meraa rishtaa puranaa...

Teraa meraa rishtaa puranaa...

Teraa meraa rishtaa puranaa...

Teraa meraa rishtaa puranaa...

Kyaa mujh mein hain

Shakss woh kehh rahaa

Aaa aab main duu karz teraa chukaa

Aankhen hain nam merii

Saasein chubhaan merii

Zakham huwaa phir haaraa

Dil kee viraanee main

Meree phasanee main

Tu hii toh harr dum rahaa

Teraa meraa rishtaa puranaa...

Teraa meraa rishtaa puranaa...

Teraa meraa rishtaa puranaa...

Teraa meraa rishtaa puranaa...

Oh teraa meraa rishtaa puranaa...

Oh teraa meraa rishtaa puranaa...

Leave a Comment