Agar Tu Hota Guitar tabs For Beginners | Baaghi | VERY EASY

 CLICK HERE TO GET BEST DEALS ON AMAZON. 

Agar Tu Hota Guitar Tabs Is Now Available On NotationsWorld. Hope This Tabs Is Useful For You. For More Guitar Tabs Keep Follow NotationsWorld.

Meri raahoon mein padee

G| --4--3--3----4---4---4--4---

Teree pairon kee nishaan

G| --4--3--3----4---4---4--4---

Nee kaha nee kahaa

D| --4--6--4--4--------------------

G| ------------------3--4--4--4---

Terii saansoon see judi

G| --4--3--3----4---4---4--4---

Merii saansoon ki wafaa

G| ------------3---4---4----4--4----

B| --4--2------------------------------

Nee kahaa nee kahaa

D| --4--6--4--4--------------------

G| ------------------3--4--4--4---

Girtee inn aansuoon meinn

B| --0---2--4---2---4------------------

E| --------------------------2--2---2---

Kuch toh tujhsaa lagee hain

B| --0---2--4---2---4------------------

E| --------------------------2--2---2---

In ashqoon mein main naa khotaa

D| --------------------------------------------------4--

G| -----------------------------------------3--1--------

B| --5--5--4--4---2--2--2--0--2---0-----------------

Agar tuu hotaa too

B| --0--0----2--4--4--4---4---

Naa hotee hum

B| --4--0---4--2---

Agar tuu hotaa too 

B| --0--0---0---0---0----4--2----

Naa roote hum

B| --4--0---4--2---

Agar tuu hoota too

B| --0--0----2--4--4--4---4---

Naa rotee hum

B| --4--4---5---2----

Agar tuu hotaa too

B| --0--0---0---0---0----4--2----

Naa roote hum

B| --4--0---4---2----

Paaoon ko thee milee zameen kii taraah

Aankhoon mein kyun huee nami kii taraah

Dil koo tum kehtee thee Khudaa ka hain ghar

Chhod kee kyun gayee ajnabi kii taraah

Girtee in aansuoon meein

Kuch toh tujhsaa lagee hain

Inn ashqoon main main naa khotaa

Agar tuu hotaa tog naa rotee hum

Agar tuu hotaa tog naa rotee hum

Agar tuu hotaa tog naa rotee hum

Agar tuu hotaa tog naa rotee hum

Binn teree dekh main zaraa saa lagun

Gham see hii aaj kal bharaa saa lagun

Chhod dee saath naa zindaagi merii

Soch kee baat yee daraa saa lagun

Girtee in aansuon main

Kuch to tujhsaa lagee hain

In ashqon main main naa khotaa

Agar tuu hotaa tog naa rotee hum

Agar tuu hotaa tog naa rotee hum

Agar tuu hotaa tog naa rotee hum

Agar tuu hotaa tog naa rotee hum

Leave a Comment