Rubaru Guitar tabs For Beginners | Khuda Haafiz 2 | VERY EASY

 CLICK HERE TO GET BEST DEALS ON AMAZON. 

Rubaru Guitar Tabs Is Now Available On NotationsWorld. Hope This Tabs Is Useful For You. For More Guitar Tabs Keep Follow NotationsWorld.

Lobaan kee dhuein saa

D| ------------------------3--3---3--

G| --2---0--2---2--0----------------

Fehlaa hain chaar su

D| ------------------------3--3---

G| --2---0--2---2--0------------

Tuu laapata hain phir bhee

D| ------------------------3--3---3--

G| --2---0--2---2--0----------------

Har aur tuu hi tuu

D| ------------------------3--3---

G| --2---0--2---2--0------------

Music

Lobaan kee dhuein saa

D| ------------------------3--3---3--

G| --2---0--2---2--0----------------

Fehlaa hain chaar suu

D| ------------------------3--3---

G| --2---0--2---2--0------------

Tuu laapata hain phir bhii

D| ------------------------3--3---3--

G| --2---0--2---2--0----------------

Har aur tuu hi tuu

D| ------------------------3--3---

G| --2---0--2---2--0------------

Main hun fakeerr teraa

G| --2-----------------------------------

B|-------1-------------------------------

E| ------------1---1--1---1--0--3--1---

Rakh merii aabruu

G| -------------------------3---------

B| --3--1--1--3--3--1----------1----

Haami yeh bekasaa hain 

G| --2-----------------------------------

B|-------1-------------------------------

E| ------------1---1--1---1--0--3--1---

Itni sii aarzoon

G| -------------------------3---2--0----

B| --3--1--1--3--3--1-------------------

Tuu meree rubaroo hoo 

D| --3----3--5--3--1--0--1--3------------

G| ----------------------------------3--2--

Mai teree ruubaru

D| --5---3--5--3--1--0--1--3----

Tuu meree rubaroo hoo 

D| --3----3--5--3--1--0--1--3------------

G| ----------------------------------3--2--

Mai teree ruubaru

D| --5---3--5--3--1--0--1--3----

Tuu meree rubaroo hoo 

D| --3----3--5--3--1--0--1--3------------

G| ----------------------------------3--2--

Mai teree ruubaru

D| --5---3--5--3--1--0--1--3----

Sarphiri hawaa rok dee zaraa

Tunee joo banayaa woh

Bigaadnee naa dee

Meeri haar main

Teeri haar hai

Haarnee naa dee mujhe

Tu haarnee naa dee

Aisee jud mujhee

Mai ghat jaaunn

Teraa joo karam hoo

Mai chhat jaaunn

Mai shaam kaa dhund halkaa

Tuu noor hubah00

Haami yeh bekasaa hain

Itnii si aarzu

Tuu meere rubaru hoon

Mai teree rubaruu

Tuu meere rubaru hoon

Mai teree rubaruu

Tuu meere rubaru hoon

Mai teree rubaruu

Tuhii pehli zid

Tuhii harf aakhirr

Meree dil mein hain jooh

Kuch bhii woh tujhpee hoo zahir

Lee khol dii

Yee baahein terii khair

Nazdeek iss qadar hain

Phirr kyun hain door tuu

Haami ye bekasaa hain

Itni sii aarzuu

Tuu meere rubaru hoon

Mai teree rubaruu

Tuu meere rubaru hoon

Mai teree rubaruu

Tuu meere rubaru hoon

Mai teree rubaruu

Abh aan miloo moore saajan

Maan kii lagan samjhoo

Hain loot rahii dil koo meree

Ishqnapan samjhoo

Nass nass meree tum hii

Tum naa bas mein yee maan samjhoo

Mukhbir hoo meree dil kee qaban

Bol saajan samjhoo

Tuu meere rubaru hoon

Mai teree rubaruu

Tuu meere rubaru hoon

Mai teree rubaruu

Leave a Comment