Nazm Nazm Guitar Tabs For Beginners | VERY EASY

 CLICK HERE TO GET BEST DEALS ON AMAZON. 

Nazm Nazm Guitar Tabs Is Now Available On NotationsWorld. Hope This Tabs Is Useful For You. For More Guitar Tabs Keep Follow NotationsWorld.

Tuu nazm nazm saa meere

G| --0--0--0------------4--2--4--4--

B| ---------------3--3------------------

Hoothon pee theharr jaa

D| -----------------------4--2--

G| --0--0--4--2---0-----------

Mein khwaab khwaab saa teeri

D| --2--2--2-------------------------

G| --------------2--2--2--4--2--2--

Aankhoon main jaagoon ree

G| -------------4--2--4--0--

B| --3--3--3-----------------

Tuu ishqq ishqq saa meere

G| --0--0--0------------4--2--4--4--

B| ---------------3--3------------------

Rooh main aankee bas jaa

D| -----------------------4--2--

G| --0--0--4--2---0-----------

Jiss aur teeri shehnaaii

D| --2--2-------------------------

G| ----------2--2--2--4--2--2--

Us oore mein bhaagoon ree

G| -------------4--2--4--0--

B| --3--3--3-----------------

Hath tham lee piyaa

G| --0--0--2--0--4--2--4--

Kartee hein vadaa

G| --0---2--0--5--5--

Abh see tuu aarzuu

G| --2--4--5---------------------2--

B| ---------------5--3---1--0--------

Tuu hi hain iraadaa

G| --2--2-----------------

B| ----------3--1--0--0--

Meraa naam lee piyaa

G| --0--0--2--0--4--2--4--

Main teeri rubaii

G| --0--0--2--0--5--5--

Teeri hi toh pichee pichee

G| --2--4--5--------------------2--

B| ---------------5--3--3--1--------

Barsat aayii

G| --2--2-----------------

B| ----------3--1--0--0--

Barsat aayii

D| --4---------2--4------------

G| -------0-------------0--0--

Tu itr itr saa meere

G| --0--0--0------------4--2--4--4--

B| ---------------3--3-----------------

Saansoon main bikharr ja

D| -----------------------4--2--

G| --0--0--4--2---0-----------

Mein faqeerr teere qurbat kaa

D| --2--2--2-------------------------

G| --------------2--2--2--4--2--2--

Tujhsee tu maangoon ree

G| ------------------2--4--0--

B| --3--3--3--0---------------

Tu ishqq ishqq saa meere

G| --0--0--0------------4--2--4--4--

B| ---------------3--3-----------------

Rooh main aakee bas jaa

D| -----------------------4--2--

G| --0--0--4--2---0-----------

Jiss aur terii shehnai

D| --2--2-------------------------

G| ----------2--2--2--4--2--2--

Us oore mein bhaagoon ree

G| -------------4--2--4--0--

B| --3--3--3-----------------

Meree dil kee lifaafee main

Teraa khat hain janiyaa

Teraa khat hain janiyaa

Nachez nee kaisee pa lii

Kismatt yeh janiyaa vee

Oh meere dil kee lifaafe main

Teraa khat hain jaaniya

Teraa khat hain jaaniya

Nachez nee kaisee paali

Jannat yeeh janiyaa vee

Tuu nazm nazm saa meere

Honthoon pee theharr jaa 

Tuu nazm nazm saa meere

Honthoon pee theharr jaa

Mein khwab khwab saa teeri

Aankhoon main jaagoon ree

Tuu ishqq ishqq saa meere

Rooh main aakee bas jaa

Jiss aur teeri shehnai

Us oore mein bhaagoon ree

Naaa naaa..

Leave a Comment