Sajni Guitar Tabs For Beginners | Laapataa Ladies | VERY EASY

Sajni Guitar Tabs For Beginners | Laapataa Ladies | VERY EASY

Sajni Guitar Tabs Is Now Available On NotationsWorld. Hope This Tabs Is Useful For You. For More Guitar Tabs Keep Follow NotationsWorld.

Oh sajni re

E| --7--5--5--7--8---

Kaise kate din raat

E| --8--7---7--8--10--8--7--5--3--

Kaise ho tujhse baat

E| --8--7---7--8--10--8--7--5--3--

Teri yaad satave re

E| --3--3--8---7---5---5--1--5--3--

Oh sajni re

E| --7--5--5--7--8---

Kaisey kate din raat

E| --8--7---7--8--10--8--7--5--3--

Kese milein tera sath

E| --8--7---7--8--10--8--7--5--3--

Teri yaad teri yaad satave re

E| --3-3-3-7-8-12--10--8--7---7-5--3--8---

Kaisey ghane re badhra girey

B| ---------------3------------------------------------

E| --0--3--0---------0--3--5--3---3--5--7--5--5------

Teri kami ki baarish liye

E| -8--7--10--8--7--5--3--1---1--3--5--3--3--

Sailaab joh mere seene mein hai

E| --3--5--7--8--8---10--8--7--5---5--7--8--7--7---8--7---

Koyi btaye ye kaisey thamein

B| ------------------------------------------------3-------

E| --10--10--8--7---8--7--5--3---5--3--0-------------0--

Tere bina abb kese jiye

E| --12--12--10--10---12--10--8--7---7--8--10--8--8--

Oh sajni re

E| --7--5--5--7--8---

Kaise kate din raat

E| --8--7---7--8--10--8--7--5--3--

Kaise ho tujhse baat

E| --8--7---7--8--10--8--7--5--3--

Teri yaad satave re

E| --3--3--8---7---5---5--1--5--3--

Oh sajni re

E| --7--5--5--7--8---

Kaisey kate din raat

E| --8--7---7--8--10--8--7--5--3--

Kese milein tera sath

E| --8--7---7--8--10--8--7--5--3--

Teri yaad teri yaad satave re

E| --3-3-3-7-8-12--10--8--7---7-5--3--8---

PLEASE TRY TO AVOID AUTO TRANSLATION OF PAGES, IT MAY DISRUPT THE ALIGNMENT

Leave a Comment