Srivalli Guitar Tabs For Beginners | Pushpa | VERY EASY

 CLICK HERE TO GET BEST DEALS ON AMAZON. 

Srivalli Guitar Tabs Is Now Available On NotationsWorld. Hope This Tabs Is Useful For You. For More Guitar Tabs Keep Follow NotationsWorld.

Nazreein milte hi nazroon se

D| --2--2-----------------------------

G| ----------4--4--4--4--4-4-4--4--

Nazroon ko churaaye

G| --4--2--4-4--2--1---

Kaisii yeh haya teeri

D| --2-----------------------

G| -------4--4-4-4--4--4--

Joo tu palkoon ko jhukaaye

G| --4--4--4--2--4-4--2--1---

Rabb jo pooshida hain

D| ---------------6--4--6-4-2--

G| --2--2---4-------------------

Ussko nihaare tu

D| ---------------6--4--6-4-2--

G| --2--2---4-------------------

Aurr jo garveda hain

D| ---------------6--4--6-4-2--

G| --2--2-2--4------------------

Usko tale tu

D| --2--6-4--2--1--2---

Teeri jhalak ashaarfii

B| --5---5---5--5--5--5-----------

E| --------------------------2--4--

Srivaalli

E| --4-2-2-4-5-4-2--0--

Naaina madak barrfi

B| -------3--3---3--2--3--2--3-5-3-2-0--

E| --0---------------------------------------

Teeri jhalaak asharrfi 

B| --5---5---5--5--5--5--------------

E| --------------------------7--7--4--

Srivaalli

E| --4-2-2-4-5-4-2--0--

Bateein kare do harrfi

B| -------3--3---3--2--3--2--3-5-3-2-0--

E| --0---------------------------------------

Saaraa zamaana hai

Meere pechee

Parr yee deewaana

Hai teere pechee

Sarr yee jhuknee

Naa doon duniyaa kee aangee

Parr teeri paayal dheeku

Karr kee sar nechee

Naa tamannaa heeraa pannaa

Mujhkoo hain bass teeri bannaa

Ekk jhalak teeri aankhon main

Khwaab sajaa jaaye

Teeri jhalak ashaarfi srivaalli

Nainaa madakk barfii

Teeri jhalakk asharrfi srivaalli

Baate karee doo harfii

Teeri saheeliyaan saadaa mamoli

Uskee muqaablee thoodi tuu bhalii

Jaisee hii solwaan chaadh jayee sawann

Tuu kyaa harr ladki dikhe phooloon kii kalii

Banss pee liptii saare

Woo bhii dikhee raaj kumaari

Jhmukee bindii aur gajree see

Roop nikharr jaayee

Teeri jhalakk asharfii srivaalli

Nainaa madak barrfi

Teeri jhalakk asharfii srivaalli

Baate karee doo harfii

Leave a Comment