Pasoori Guitar tabs For Beginners | Coke Studio 14 | VERY EASY

 CLICK HERE TO GET BEST DEALS ON AMAZON. 

Pasoori Guitar Tabs Is Now Available On NotationsWorld. Hope This Tabs Is Useful For You. For More Guitar Tabs Keep Follow NotationsWorld.

Ag laavan majbori nu

G| --------------------3--3---------

B| --3--0--0--0-0------------0---

Aaan jaann dii pasoori nuu

G| -------------------3--3---------

B| --3--0--3--0-0-----------0---

Zeharr bane ha terii

G| --6-6-4--2---6--4--2---

Pe jaavan mein pori nu

D| --2--4------------------------

G| ----------3--3--4--6-3-4----

Anaa si ooh nai aaya

G| --------------------3--3---------

B| --3--0--0--0-0------------0---

Dil baag baag meraa takraaya

G| --------------------------3--3--4---

B| --0--3--0--3--0--0-----------------

Kaaga bool ke dass jaavein

G| --6--4--2---2-6--4--2---

Paavan gheeyo de chori nu

D| --2--4------------------------

G| ----------3--3--4--6-3-4----

Rawaan ch bawaan ch oh nu

B| --0-3--0-3-5--3-5-7--

Lukaawan koii meinu na roke

G| --------------------------3------

B| --8-7-5-3-2-5--3--2-------0--

Meree dhool judaaiyan di

B| --0-0-0-3--3-3-5-7--7-5---

Tainuu khabarr kiveein hoove

B| --0-0-0-3--3-3-5-7--7-5---

Aaa jaavein dil tera

B| --3-2-5--3--2--0--2---

Poora vi naa hoove

G| ------------------3-------

B| --2-3-5--3--2--------0--

Haan baniyaan banaaiyaan di

B| --0-0-0-3--3-3-5-7--7-5---

Gal baat kiveein hoovee

B| --0-0-0-3--3-3-5-7--7-5---

Aaa jaavein dil tera

B| --3-2-5--3--2-0-2--2--

Poora vi naa hoove

G| ------------------3-------

B| --2-3-5--3--2--------0--

Bhul gayee majboorii nuu

Duniyaa di dastoorii nuu

Saath teraa hain batheeraa

Pooraa kar zaroorii nuu

Aana sii oo nai aayaa

Raastaa naa dikhlaayaa

Dil hamaara dee sahaaraa

Khaahishaat adhoorii nuu

Waarii main jaavaan

Main tenuu bulavaann

Gal saarii taan hovee

Meree dhol judaiyaann dii

Tenuu khabarr kiveein hoove

Aa jaavein dil teraa

Pooraa vi naa hoove

Haan baniyaan banaiyaann dii

Gal baat kiveein hoove

Aa jaavein dil teera

Pooraa vi naa hoove

Meree dhol judaaiyaan dii

Sardaari naa hovee

Meree dhol judaaiyaan dii

Ahhaaaa.....

Meree dhool judaaiyaan dii

Sardaari naa hoove

Dildaaraan di sabb yaaaran dii

Aazaarii naa hoove

Dildaaran dii sabb yaaaran dii

Aazaarii naa hoove

Aaa chalein lee kee tujhee

Hain jahaan silsilaay

Tuu hain wahin

Hain teeri kamii

Banaa dee sazaa dee

Panah dee humee

Banaa dee sazaa dee

Panaah dee humee

Ag laavan majboori nuu

Aan jaan dii pasoorii nuu

Zeharr banee haan terii

Pee jaavaan main poorii nuu

Raawaan chh baawan chh oo nu lukaawaan

Koii mainu naa rokee

Meree dhool judaiyaan dii

Tenuu khabar kiveein hoove

Aa jaavee dil teraa

Pooraa vi naa hoove

Haan baniyaan banaaiyaan dii

Gal baat kiveein hoove

Aaa jaavee dil teraa

Pooraa vi naa hoove

Pooraa vii naa hoove

Pooraa vii naa hoove

Leave a Comment