Teri Hogaiyaan Guitar Tabs For Beginners | VERY EASY

 CLICK HERE TO GET BEST DEALS ON AMAZON. 

Teri Hogaiyaan Guitar Tabs Is Now Available On NotationsWorld. Hope This Tabs Is Useful For You. For More Guitar Tabs Keep Follow NotationsWorld.

Kaisaa pyaar tuu jataayee

E| --5--5---3--5--3--1--1--1---

Kaisee paas meere aayee

E| --5--5---3--5--3--1--1--1---

Kaisaa pyaar tuu jataayee

E| --5--5---3--5--3--1--1--1---

Kaisee paas meere aayee

E| --5--5---3--5--3--1--1--1---

Main nibhaun teree

E| --1--1--0--1---1--1---

Dil kii yee chooriyaan

B| ---------------3--1---3--5--

E| --0--1--0--------------------

Main teeri hoogaiyaan

E| --0--0--1--3--3-1-1---

Haann..

B| ----------------------3--1--

E| --3--5--3---1--0-----------

Main teeri hoogaiyaan

E| --0--0--1--3--3-1-1---

Haann..

B| ----------------------3--1--

E| --3--5--3---1--0-----------

Mainn teeri hoogaiyaan

E| --0--0--1--3--3-1-1---

Teeri laag aisii laagi

E| --0--1--3--1--1--1--1--1--

Rain saarii saari jaagii

E| --0--1--3--1--1--1--1--1--

Terii laag kaisii

B| ---------------------3--

E| --0--1--3--1--0--------

Maahiyaa aa....

B| --1--3--1-3-----------------

E| -----------------0-3-3-1---

Tunee hi kii manmaanii

E| --0--1--3--1--1--1--1--1--

Ekk bhi naa meeri maanii

E| --0--1--3--1--1--1--1--1--

Aisee kyun sataayaa

B| ---------------------3--

E| --0--1--3--1--0--------

Maahiyaa aaa

B| --1--3--1-3-----------------

E| -----------------0-3-3-1---

Kaisee tujhkoo yee bataayee

E| --5--5---3--5--3--1--1--1---

Kee hum jee nahii paayee

E| --5--5---3--5--3--1--1--1---

Kaisee tujhkio yee bataayee

E| --5--5---3--5--3--1--1--1---

Haan humm je nahi paayee

E| --5--5---3--5--3--1--1--1---

Jaan leeti thii

E| --1--1--0--1---1--1---

Teeri meeri dooriyaann

B| ---------------3--1---3--5--

E| --0--1--0--------------------

Mainn teeri hogaiyaan

E| --0--0--1--3--3-1-1---

Haann..

B| ----------------------3--1--

E| --3--5--3---1--0-----------

Mainn teeri hogaiyaan

E| --0--0--1--3--3-1-1---

Haann..

B| ----------------------3--1--

E| --3--5--3---1--0-----------

Mainn teeri hogaiyaan

E| --0--0--1--3--3-1-1---

Leave a Comment