Bhool Bhulaiyaa Guitar Tabs For Beginners | VERY EASY

 CLICK HERE TO GET BEST DEALS ON AMAZON. 

Bhool Bhulaiyaa Guitar Tabs Is Now Available On NotationsWorld. Hope This Tabs Is Useful For You. For More Guitar Tabs Keep Follow NotationsWorld.

Teeri aankhee bhool bhulaiyaa

B| --1-1-1--1--1---1-3--4---

Baateein hain bhool bhulaiyaa

G| --------------------1--0--

B| --1--1--1--1---1----------

Teree sapno ki galiyoon main

B| --1-1-1--1--1--1--3--4--

I keep looking forr you babyy

B| --6--4--3--4--6--4--3--1--

Terii aankhee bhool bhulaiyaa

B| --1-1-1--1--1---1-3--4---

Baatein hain bhool bhulaiyaa

G| --------------------1--0--

B| --1--1--1--1---1----------

Teree sapno kii galiyoon mein

B| --1-1-1--1--1--1--3--4--

You keep drivingg mee soo crazy

B| --6--4--3--4--6--4--3--1--

Dil mein tuu rehteein hain

B| --1-----------------------

E| -------3---1--3--4--3--

Beetabi kehti hain

B| --1--------------4--3--4---

E| -------3---1-----------------

I keep prayingg all dayy

B| --1----------------------- 

E| -------3---1--3--4--3--
 
All dayy all night longg

B| --4--3--1--3--4--

Haree raam haree ram

B| --1--3--4---4--3--1--

Haree krishnaa haree ram

B| --1--3--4--6--3--4--1--

Haree raam haare ram

B| --4--6--8---8--6--4--

Haree krishnaa haree ram

B| --4--6--8--9--6--8--4--

Haree raam haree ram

B| --1--3--4---4--3--1--

Haree krishnaa haree ram

B| --1--3--4--6--3--4--1--

Haree raam haree ram

B| --4--6--8---8--6--4--

Haree krishnaa haree ram oo oh ooo

B| --4--6--8--9--6--8--4--3--1--3--4--

Tuu meri khamooshi hain tuu meeri madhoosi hain

Tuu meera hain aafsaana

Making mee soo happy shaking myy body

Tuu hain aawaraa dhadkhan tu hain raaton kii tadpan

Tuu hain meeri dil jaanaa

anythingg about youu babyy i like itt

Terii zulfon kee neechee meri kwaboon kii jannat

Terii baahon mein aakee beechaini koo miltii raahat

Myy only wishh is if i everr everr could makee you minee

Everyy one prayy with me

All dayy all night longg

Haree ram haare ram haree krishnaa haree ram..

Haree ram haare ram haree krishnaa haree ram..

Ohh hoo...

Teree vaadee pee jeenaa teri kasmon pee marnaa

Baaki aabb kuch naa karnaa

Lets talk about itt lets get startedd

Chahee jaagaa yaa sooyaa deewanepan meinn kohyaa

Duniyaa see aab kyaa dharnaa

Movee on lookingg life iss all partyy

Teree ehsaanson kii gherayi main doobaa rehtaa hun

Tuu meri jaan banjaye her mohh har rab see kehataa hun

Everyone's talkingg about us whereeverr i goo

My lovee iss rocking babyy coma on noww com on

Haree raam haree ram haree krishnaa haree ram

Haree raam haree ram haree krishnaa haree ram

Haree raam haree ram haree krishnaa haree ram

Haree raam haree ram haree krishnaa haree ram

ohhoo..

Teri aankhee bhool bhulaiyaa baateein hain bhool bhulaiyaa

Teree sapnoo kii galiyoon main I keep lookingg forr you babyy

Teri aankhee bhool bhulaiyaa baateein hain bhool bhulaiyaa

Teree sapno kii galiyoon mein you keep drivingg mee soo crazy

Dil meinn tu rehteein hain betabii kehtii hain

I keepp prayingg all dayy

All dayy all nightt longg

Haree raam haree ram haree krishnaa haree ram

Haree raam haree ram haree krishnaa haree ram

Haree raam haree ram haree krishnaa haree ram

Haree raam haree ram haree krishnaa haree ram

Leave a Comment