Bharat Guitar Tabs For Beginners | Manikarnika | VERY EASY

 CLICK HERE TO GET BEST DEALS ON AMAZON. 

Bharat Guitar Tabs Is Now Available On NotationsWorld. Hope This Tabs Is Useful For You. For More Guitar Tabs Keep Follow NotationsWorld.

Desh see hain pyaar toh

B| --2--2--3---5---2---2--3---

Har pal yee kehnaa chahiyee

B| --3--5--2---2--3--5---------------------

E| --------------------------5---3--2--0---

Main rahoon yaa naa rahoon

E| --0---3---5--8--7---5---3--2--0---

Bharat yee rehnaa chahiyee

B| --------------------------2---2--3---

E| --0---1---0--1--1--0-----------------

Desh see hain pyaar toh

B| --2--2--3---5---2---2--3---

Harpal yee kehnaa chahiyee

B| --3--5--2---2--3--5---------------------

E| --------------------------5---3--2--0---

Main rahoon yaa naa rahoon

E| --0---3---5--8--7---5---3--2--0---

Bharat yee rehnaa chahiyee

B| --------------------------2---2--3---

E| --0---1---0--1--1--0-----------------

Silsilaa yee baad meree

B| --2---2--3---5---2---2--3---5---

Yun hi chalnaa chahiyee

B| --2---2--3---5---------------------

E| --------------------5---3--2--0---

Main rahoon yaa naa rahoon

E| --0---3---5--8--7---5---3--2--0---

Bharat yee rehnaa chahiyee

B| --------------------------2---2--3---

E| --0---1---0--1--1--0-----------------

Mere nash nash taarr karr doo

Aur banaa doo ekk sitaar

Raag bhaarat mujhapee chhedoo

jhann jhanaoo baarr baarr

Desh see yee preem aankhoo see

Chhalakanaa chahiyee

Main rahu yaa naa rahoo

Bharat yee rahnaa chahiyee

Shatru see kah doo zaraa

Seemaa mein rahanaa seekh lee

Yee meraa bharatt amar hain

Satyaa kahnaa seekh lee

Bhakti kii iss shakti koo

Badh karr dikhanaa chahiyee

Main rahu yaa naa rahoo

Bhaarat yee rahnaa chahiyee

Hain mujhee saugandh bhaarat

Saugandh bhaarat hain mujhee

Bhulu naa ekk kashan tujhee

Rakt ki hrar boond terii

Hain teraa arpan tujhee

Yudh yee samman kaa hain

Maan rahanaa chahiyee

Main rahuu yaa naa rahu

Bhaarat yee rahnaa chahiyee

Main rahoo ya naa rahoo

Bharat yee rahnaa chahiyee

Main rahoo yaa naa rahoo

Bharat yee rahnaa chahiyee

Leave a Comment