Kesariya Guitar Tabs For Beginners | Brahmastra | VERY EASY

Kesariya Guitar Tabs For Beginners | Brahmastra | VERY EASY

Checkout Our Partner's Youtube Channel For Flute Cover And Tutorials And Don't Forgot To Subscribe His Channel.

Kesariya Guitar Tabs Is Now Available On NotationsWorld. Hope This Tabs Is Useful For You. For More Guitar Tabs Keep Follow NotationsWorld.

Mujhkoo o o o

B| -----------5----6-5-3---

E| --3--3-------------------

Itna bataayee koyi

B| --3-5-6--5--3---1---0--1---

Kaisee tujhsee e e e

G| --0--2----------------------------

B| --------------------------------3--

E| ------------3-3---0----1-0------

Dil naa lagaaye koyii

B | --3-5-6--5--3---1---0--1---

Rabba nee tujhkoo banane meinn

B| --1--3--3/5-----------------3--1--3/5---

E| -----------------3-3-1--0-----------------

Kardi haii husn ki

B|-----------------3--1--3/5---

E|--3-3-1--0-------------------

Khaali tikooriyaan

B|-----------------3--1--3--

E|--3--1--0-----------------

Kaajal ki siyaahi se likhii

B|--1--3--3/5---------------3--1--3/5---

E|-------------------3-1--0-----------------

Hai tunee jaane

B|----------------3--1--

E|--3--1--0-------------

Kitnoo ki love storiyaan

G|--0-2----------------------------------

B|-----------1--1--3/5--5--5--6-5-3--

Kesariyaa teraa

B|--1--5--3--5--3--1--0--

Ishq hai piyaa

B|-------------------------5--3--

E|--3--3--3--5-3-1------------

Rang jaaun joo meinn

B|--3--3--0--0-3-3--3--

Haath lagaaunn

B|--0--3--5--6--3-5---3-1--

Din beetee saarein

B|--1--5--3--5--3--1--0--

Teri fikr mein..

B|------------------------5--3--

E|--3--3--3--5-3-1------------

Rain saari terii

B|--3--3--0--0-3-3--3--

Khair manaaun uu uuu

B|--0--3--5--6--3-5--3-1---0--3--

PLEASE TRY TO AVOID AUTO TRANSLATION OF PAGES, IT MAY DISRUPT THE ALIGNMENT

Leave a Comment