Deva Deva Guitar Tabs For Beginners | Brahmastra | VERY EASY

CHECKOUT OUR PARTNER'S YOUTUBE CHANNEL FOR FLUTE COVER AND TUTORIALS
 

HURRY UP TODAY'S DEALS WILL BE OVER SOON. CLICK HERE TO GET BEST DEALS ON AMAZON.

Deva Deva Guitar Tabs Is Now Available On NotationsWorld. Hope This Tabs Is Useful For You. For More Guitar Tabs Keep Follow NotationsWorld.

Chingaariyan yeh jo mere

B| --1--1--------------1--1------------

E| -----------0--0-----------------1--1---

Seene me hain daffan

B| --1--3--5--5----3--1--1---

Inko zaraa deke hava

B| --1--1--------------1--1---------------

E| ------------0--0-----------------1--1---

Ban jaoon mai agan

B| --1--3--5--5----3--1--1---

Dahak raha haiĀ 

B| -----------------------------3--1--

E| --0--0--1--3--3----0------------

Banke sharara

B| -----------------------------3--1--

E| --0--0--1--3--3----0------------

Dekh mera badan

B| ---------------------3---3----

E| --0--1--1--0-----------------

Sab kucch mera karke fanah

B| --1--1-----------------1--1------------

E| ------------0--0-----------------1--1---

Karta hoon mai hawan

B| --1--3--5--5----3--1--1---

Om deva deva

B| --1----3--5----3--5----

Om deva deva namah

G| ------------------------------------------2--

B| --3--1--1--3----1--3----1--0--0---------

Namaho namah om

B| --1--1--1----------------3--1----

E| -----------------0--0---------------

Deva deva

B| ---3--5----3--5---

Om deva deva namah

G| ------------------------------------------2--

B| --3--1--1--3----1--3----1--0--0---------

Namaho namah om

B| --1--1--1---------------3--1----

E| ----------------0--0---------------

Leave a Comment

x