Raataan Lambiyan Guitar Tabs For Beginners | Shershaah | VERY EASY

Raataan Lambiyan Guitar Tabs Is Now Available On NotationsWorld. Hope This Tabs Is Useful For You. For More Guitar Tabs Keep Follow NotationsWorld.

Teri meri gallan ho gayi mashhoor

G| --5-7-7-5-5-7-7-5-5-7-7-5-7--5-3--

Kar na kabhi tu mujhe nazron se door

G| --3-5-5-3-3-5-5-3-3-5-5-3-5--3-0--

Kithe chali ae tu kithe chali ae tu

G| --0-3-3-5-5-7-7--0-3-3-5-5-7-7--

Kithe chali ae

G| --3-0-0-3-3--

Jaanda ae dil yeh toh jaandi ae tu

G| --5-7-7-5-5-7-7-5-5-7-7-5-7--5-3--

Tere bin main na rahun mere bina tu

G| --3-5-5-7-3-5-5-7-3-5-5-3-5--3-0--

Kithe chali ae tu kithe chali ae tu

G| --0-3-3-5-5-7-7--0-3-3-5-5-7-7--

Kithe chali ae

G| --3-0-0-3-3--

Kaatun kaise raatan 

B| --3-----------------------4-3-1--

E| ------1--1--3--1--3--1-----------

Oh saawre

G| --3--0--3-------------

B| -------------3--3--1--  
  Jiya nahi jaata 

B| --3-----------------------4-3-1--

E| ------1--1--3--1--3--1-----------

Sunn baawre

G| --3--0--3-------------

B| -------------3--3--1--

Ke raataan lambiyan lambiyan re

E| --6-5--1--3-3-6-3-3-3-6-3-3--

Kate tere sangeyan sangeyan re

B| ---------4------------------------

E| --6-5-------1-1-3-1-1-1-3-1-1--

Ke raataan lambiyan lambiyan re

E| --6-5--1--3-3-6-3-3-3-6-3-3--

Kate tere sangeyan sangeyan re

B| ---------4------------------------

E| --6-5-------1-1-3-5-3-1-1--1---

Leave a Comment