Mahabharat Krishna Theme Guitar Tabs For Beginners | VERY EASY

Mahabharat Krishna Theme Guitar Tabs Is Now Available On NotationsWorld. Hope This Tabs Is Useful For You. For More Guitar Tabs Keep Follow NotationsWorld.

A| --2----------------2-----------------2----------------

D| ------1-2-1-2-1-------1-2-1-2-1---------1-2-1--



A| --2----------------2-----------------2---------------

D| ------1-2-1-2-1-------1-2-1-2-1---------1-2----



A| --6------------------6-------------------6---------------

D| ------4-6-4-6-4---------4-6-4-6-4--------4-6-4----



A| --6------------------6-------------------6-----------

D| ------4-6-4-6-4---------4-6-4-6-4--------4-6---



A| --2-----------2------------------

D| ------1--2--------1--2--1--2--



A| --2-----------2------------------

D| ------1--2--------1--2--1--2--  
  A| --6------------6-------------------

D| ------4--6----------4--6--4--6--



A| --6------------6-------------------

D| ------4--6----------4--6--4--6--



D| ----------4--7--6--4--2--1--2--

G| --4--3----------------------------



G| -----------------------------------3----

B| --4--4--5---4-7--5--4--2--0--------



D| ---------------------4--7--6--6--

G| --3--6--4--4--3-----------------

Leave a Comment