Titanic (My Heart Will Go On) Guitar Tabs For Beginners | VERY EASY

Titanic (My Heart Will Go On) Guitar Tabs Is Now Available On NotationsWorld. Hope This Tabs Is Useful For You. For More Guitar Tabs Keep Follow NotationsWorld.

Intro music

B| --5--7--7--9---10-9-7-5-7--------

E| --------------------------------7----


B| -----------5--2---0----

E| --5--4------------------


B| --5--7--7--9---10-9-7-5-7--------

E| --------------------------------7----


B| -------------------7---

E| --4--7--9---7---------


Every night in my dreams

B| --5--5-5--5--4--5--

I see you I feel yor

B| --5--4--5---7--9---7---

That is how I know you go on

B| --5--5-5--5--4--5---5--0---

Far cross the distance

B| --5--5-5--5--4--5--

And spaces between us

B| --5--4--5---7--9---7---

You have come to show you go on

B| --5--5-5--5--4--5---5--0---

Near far wherever you are

B| --5---7---0------------------

E| ----------------7---5--4--2--

I believe that the heart does go on

B| ------------------------4--5----4--2---0---

E| --4--5--4---2---0----------------------------

Once more you open the door

B| --5---7---0------------------

E| ----------------7---5--4--2--

And you're here in my heart and 

B| ----------------------4---5---

E| --4--5--4---2---0------------

my heart will go on and on

B| --5-4---5---7--9---7---5---

Leave a Comment