Itsy Bitsy Spider Guitar Tabs For Beginners | VERY EASY

 CLICK HERE TO GET BEST DEALS ON AMAZON. 

Itsy Bitsy Spider Guitar Tabs Is Now Available On NotationsWorld. Hope This Tabs Is Useful For You. For More Guitar Tabs Keep Follow NotationsWorld.

Itsyy bitsyy spideer

B| --1--1--1--3--5---5--

When upp thee water spouut

B| --5--3--1--3--5--1--

Downn camee thee rain

B| --5---5--6--8---

And washedd thee spiderr out

B| --8--6--5--6--8--5--

Out camee thee sunshinee

B| ---------------5---5--

E| --5---3--1------------

And dried upp all thee rainn

B| --5--3--1--3--5--1---

And itsyy bitsyy spiderr

G| --0------------------------

B| -------1--1--1--3--5---5--

Climbed upp thee spoutt again

B| --5--3--1--3--5--1---

Musicc

Itsyy bitsyy spideer

B| --1--1--1--3--5---5--

When upp thee water spouut

B| --5--3--1--3--5--1--

Downn camee thee rain

B| --5---5--6--8---

And washedd thee spiderr out

B| --8--6--5--6--8--5--

Out camee thee sunshinee

B| ---------------5---5--

E| --5---3--1------------

And dried upp all thee rainn

B| --5--3--1--3--5--1---

And itsyy bitsyy spiderr

G| --0------------------------

B| -------1--1--1--3--5---5--

Climbed upp thee spoutt again

B| --5--3--1--3--5--1---

Leave a Comment