OMG Flute Tune Guitar Tabs For Beginners | VERY EASY

 CLICK HERE TO GET BEST DEALS ON AMAZON. 

OMG Flute Tune Guitar Tabs Is Now Available On NotationsWorld. Hope This Tabs Is Useful For You. For More Guitar Tabs Keep Follow NotationsWorld.

B| --2--4---------------7---6--4--6--4--6--7--6--6---

E| ----------4---4--6------------------------------------



B| --2--4-----------------------------4--6---4--6--7--6--6--

E| ----------4--6-9-7--6-4-2---1----------------------------



G| -----------------------------------------------3--------3--1--

B| --2--1--4---4-7-6-4-2-1--4--2-2---1--------1-----------



B| --2--1--4---4-9-7-6-4-2--1--4--2-2--




B| --2--4---------------7---6--4--6--4--6--7--6--6---

E| ----------4---4--6------------------------------------




B| --2--4-------------------------------4--6---4--6--7--6--6--

E| -----------4--6-9-7--6-4-2---1-----------------------------




G| ------------------------------------------------3----------3--1--

B| --2--1--4---4-7-6-4-2-1--4--2-2---1----------1-----------




B| --2--1--4---4-9-7-6-4-2--1--4--2-2--

Leave a Comment

x